Oops, an error
Loading. Please wait.

Everything Glows Tab

version 3
version 3

Whole song

Interactive

2,646 views 21 this week
2 commentsread comments
1 2 3 4 5
accurate
x 4
add to favorites
launch autoscroll
font size
0
reset
how to read this tab
guitar tuner
Tab Pro tools
  • play this tab
  • loop segment
  • change instrument
  • show fretboard
  • metronome
Autoscroll
slow
fast
+/-
esc
set tempo
stop
Difficulty
novice
Okay, I did some corrections to the other tabs of this song, I think it's almost 100% correct now!

Intro & verse:
e|--6--6-------------------------------|| 
B|--6--6-------------------------------||
G|-------------------------------------||
D|-------------------------------------|| (repeat it!)
A|-------------------------------------|| 
E|-------------------------------------||
Bass plays (if the intro is too boring):
e|-------------------------------------||
B|-------------------------------------||
G|-------------------------------------||
D|-------------------------------------||
A|---6-6-6-5-3-3-3---------------------|| x4
E|-----------------3-3-3-3-3-3---------||

When you come to the bridge just play the intro
But when you come to the "still my eyes are closed" part, you play:

e|-----------------------||
B|-----------------------||
G|-----------------------||
D|-----------------------||
A|--3--1---3----5--------||
E|--------------------3--||
 "still my eyes are closed"

Chorus:
e-------------------|-------------------|
H-------------------|-------------------|
G-8---8--x-x-x--8---|-------------------| x 3
D-8---8--x-x-x--8---|-5---5--x-x-x--5---|
A-6---6--x-x-x--6---|-5---5--x-x-x--5---|
E-------------------|-3---3--x-x-x--3---|
"Days when life just grabs your shoulder"

e-----------------|-----------------|
H-----------------|-----------------|
G-3-3---x-5---5---|-----------------|
D-3-3---x-5---5---|-5-x-x-x-5-------| X1
A-1-1---x-3---3---|-5-x-x-x-5-------|
E-----------------|-3-x-x-x-3-------|
"Still my eyes are closed"

After the chorus:
e---------------|
H-5/11-----5/6--|
G---------------| X4
D---------------|
A---------------|
E---------------|

Solo:
e-----------------|-----------------|-----------------|-----------------|
H-----------------|-----------------|-----------------|-----------------|
G-----------------|-----------------|-----------------|-----------------|
D-----------------|-----------------|-----------------|-----------------|
A-1-------3---5---|-----------------|-1-------3---5/6-|-5~~~~~~~~~~~~~~~|
E-----------------|-3~~~~~~~~~~~~~~~|-----------------|-----------------|

e-----------------|-----------------|-----------------|-----------------|
H-----------------|-----------------|-----------------|-----------------|
G-----------------|-----------------|-----------------|-----------------|
D-----------------|-----------------|-----------------|-----------------|
A-1-------3---5---|-----------------|-5-------3---5---|-----------------|
E-----------------|-3~~~~~~~~~~~~~~~|---3-------------|-3~~~~~~~~~~~~~~~|




Outro:

e|-----------------------||
B|-----------------------||
G|-----------------------||
D|-----------------------||
A|--3--1---3----5--------||
E|--------------------3--||
"Still my eyes are closed"
comments
print report bad tab
2 comments total.
0 reply
Tvinter wrote on March 4 2006, 04:49 pm

the slide is from 5/7 not 5/6

otherwise great tab!

0 reply
Muppet wrote on May 5 2006, 04:41 pm

A few stupid mistakes. But quite good.

I want to post or [tab]
guest
You may want to rate the tab now too:
select rating
Please do not post tabs as comments. Select "correction" instead!