Oops, an error
Loading. Please wait.

Jonnie tab

by D.A.D.
55 views 3 this week
no commentswrite comment
1 2 3 4 5
2 more votes to show rating
add to favorites
×
Save as Personal and add changes to this tab that will be seen only by you. Learn more ›
×
You can save this tab as Personal to edit and correct it or add notes. All changes will be seen only by you. Learn more »
launch autoscroll
font size
0
reset
how to read this tab
guitar tuner
edit
Autoscroll
slow
fast
+/-
esc
set tempo
stop
Author
Difficulty
JONNIE by D.A.D.


[Intro 1]

   D   C   F            D   C   F            D   C   F            D   C   F
e|-----------|--------|-----------|--------|-----------|--------|-----------|--------|
B|-3---1---1-|-(1)----|-3---1---1-|-(1)----|-3---1---1-|-(1)----|-3---1---1-|-(1)----|
G|-2---0---2-|-(2)----|-2---0---2-|-(2)----|-2---0---2-|-(2)----|-2---0---2-|-(2)----|
D|-0---2---3-|-(3)----|-0---2---3-|-(3)----|-0---2---3-|-(3)----|-0---2---3-|-(3)----|
A|-----3---3-|-(3)----|-----3---3-|-(3)----|-----3---3-|-(3)----|-----3---3-|-(3)----|
E|-----------|--------|-----------|--------|-----------|--------|-----------|--------|
 
[Intro 2]

   D   C   F            D   C   F            D   C   F            D   C     F
e|-----------|--------|-----------|--------|-----------|--------|-------------|--------|
B|-3---5---6-|-(6)----|-----------|--------|-----------|--------|-------------|--------|
G|-----------|--------|-7---5---5-|--------|-----------|--------|-------------|--------|
D|-----------|--------|-----------|-5/7----|-7---5---3-|-(3)----|-7---5\3/5-3-|-(3)----|
A|-----------|--------|-----------|--------|-----------|--------|-------------|--------|
E|-----------|--------|-----------|--------|-----------|--------|-------------|--------|
                                .

[Verse 1]

   D       C         F                 D       C         F
e|-----------------|-----------------|-----------------|-----------------|
B|-----------------|-----------------|-----------------|-----------------|
G|-----------------|-----------------|-----------------|-----------------|
D|-7-7-7-7-5-5-5-5-|-----------------|-7-7-7-7-5-5-5-5-|-----------------|
A|-5-5-5-5-3-3-3-3-|-3-3-3-3-3-3-3-3-|-5-5-5-5-3-3-3-3-|-3-3-3-3-3-3-3-3-|
E|-----------------|-1-1-1-1-1-1-1-1-|-----------------|-1-1-1-1-1-1-1-1-|
 |                 |                 |                 |                 |
e|-----------------|-----------------|-----------------|-----------------|
B|-----------------|-----------------|-----------------|-----------------|
G|-----------------|-----------------|-----------------|-----------------|
D|-7------\5---/10-|-----------------|-7------\5---/8--|-----------------|
A|-----------------|-----------------|-----------------|-----------------|
E|-----------------|-----------------|-----------------|-----------------|

    D      C         F
Hey Jonnie, put that gun down
        D  C           F
You can see we're all alone
    D      C       F
You look so square, standing there
          D      C          F
with your greasy, grey long hair
D          C            F
I remember growing up together
D           C        F
Sharing all kinds of weather
        D         C         F
We were two small kids in a dusty town
D              C          F
Your trail was trouble, mine was homebound



[Chorus 1]

   G          F         G                   G          F         G
e|-3--------|-1-------|-3-3------|--------|-3--------|-1-------|-3-3------|--------|
B|-3--------|-1-------|-3-3------|--------|-3--------|-1-------|-3-3------|--------|
G|-4--------|-2-------|-4-4------|--------|-4--------|-2-------|-4-4------|--------|
D|-5--------|-3-------|-5-5------|--------|-5--------|-3-------|-5-5------|--------|
A|-5--------|-3-------|-5-5------|--------|-5--------|-3-------|-5-5------|--------|
E|-3--------|-1-------|-3-3------|--------|-3--------|-1-------|-3-3------|--------|
 |          |         |          |        |          |         |          |        |
e|-15-------|-13------|-15-15----|--------|-15-------|-13------|-15-15----|--------|
B|----------|---------|----------|--------|----------|---------|----------|--------|
G|----------|---------|----------|--------|----------|---------|----------|--------|
D|----------|---------|----------|--------|----------|---------|----------|--------|
A|----------|---------|----------|--------|----------|---------|----------|--------|
E|----------|---------|----------|--------|----------|---------|----------|--------|

G               F                G
That's when you reach for your revolver
G               F              G
That's when you reach for your gun


[Interlude]

   D   C   F            D   C   F            D   C   F            D   C     F
e|-----------|--------|-----------|--------|-----------|--------|-------------|--------|
B|-3---5---6-|-(6)----|-----------|--------|-----------|--------|-------------|--------|
G|-----------|--------|-7---5---5-|--------|-----------|--------|-------------|--------|
D|-----------|--------|-----------|-5/7----|-7---5---3-|-(3)----|-7---5\3/5-3-|-(3)----|
A|-----------|--------|-----------|--------|-----------|--------|-------------|--------|
E|-----------|--------|-----------|--------|-----------|--------|-------------|--------|
                                .

[Verse 2]

   D       C         F                 D       C         F
e|-----------------|-----------------|-----------------|-----------------|
B|-----------------|-----------------|-----------------|-----------------|
G|-----------------|-----------------|-----------------|-----------------|
D|-7-7-7-7-5-5-5-5-|-----------------|-7-7-7-7-5-5-5-5-|-----------------|
A|-5-5-5-5-3-3-3-3-|-3-3-3-3-3-3-3-3-|-5-5-5-5-3-3-3-3-|-3-3-3-3-3-3-3-3-|
E|-----------------|-1-1-1-1-1-1-1-1-|-----------------|-1-1-1-1-1-1-1-1-|
 |                 |                 |                 |                 |
e|-----------------|-----------------|-----------------|-----------------|
B|-----------------|-----------------|-----------------|-----------------|
G|-----------------|-----------------|-----------------|-----------------|
D|-7------\5---/10-|-----------------|-7------\5---/8--|-----------------|
A|-----------------|-----------------|-----------------|-----------------|
E|-----------------|-----------------|-----------------|-----------------|

         D         C              F
Well, we heard the stories on the wire
D              C      F
Death was your only desire
D        C            F
Stayin' away made you hard to blame
    D          C            F
But killing my love made me stop your game


[Chorus 2]

   G          F         G                       G        F       G
e|-3--------|-1-------|-3-3------|------------|-3------|-1-----|-3-----|--------------|
B|-3--------|-1-------|-3-3------|------------|-3------|-1-----|-3-----|--------------|
G|-4--------|-2-------|-4-4------|------------|-4------|-2-----|-4-----|--------------|
D|-5--------|-3-------|-5-5------|------------|-5------|-3-----|-5-----|--------------|
A|-5--------|-3-------|-5-5------|------------|-5------|-3-----|-5-----|--------------|
E|-3--------|-1-------|-3-3------|------------|-3------|-1-----|-3-----|--------------|
 |          |         |          |            |        |       |       |              |
e|-15-------|-13------|-15-15----|-----10-----|--------|-------|-------|--10---10-----|
B|----------|---------|----------|--12--------|-8------|-6-----|-------|-----8----8b--|
G|----------|---------|----------|--------12~-|--------|-------|-7-----|--------------|
D|----------|---------|----------|------------|--------|-------|-------|--------------|
A|----------|---------|----------|------------|--------|-------|-------|--------------|
E|----------|---------|----------|------------|--------|-------|-------|--------------|

G               F                G
That's when you reach for your revolver
G               F              G
That's when you reach for your gun


[Solo]
   Am    Am             Em       G       Am                   G 
e|-----|--------------|--------|-------|-----|--------------|-----------|---------|
B|-----|--------------|--------|-------|-----|--------------|-----------|---------|
G|-----|--------------|--------|-------|-----|--------------|-----------|---------|
D|-----|--------------|--------|-------|-----|------0---2p0-|-0---------|---------|
A|-0---|--0-2-3---2p0-|--------|-------|-0---|--0-3---------|------2-2--|-----2-3-|
E|-----|--------------|-0--0h2-|-3-----|-----|--------------|-----------|---------|

   Am                   D
e|----------|---------|----------|-----------|--------|----------|
B|----------|---------|----------|-------1h3-|-3------|----------|
G|----------|---------|------0h2-|-2---------|--------|----------|
D|-2--------|-----0h4-|-4--------|-----------|--------|----------|
A|----0-0---|---------|----------|-----------|--------|----------|
E|----------|---------|----------|-----------|--------|----------|


[Interlude]

   D   C   F            D   C   F            D   C   F            D   C     F
e|-----------|--------|-----------|--------|-----------|--------|-------------|--------|
B|-3---5---6-|-(6)----|-----------|--------|-----------|--------|-------------|--------|
G|-----------|--------|-7---5---5-|--------|-----------|--------|-------------|--------|
D|-----------|--------|-----------|-5/7----|-7---5---3-|-(3)----|-7---5\3/5-3-|-(3)----|
A|-----------|--------|-----------|--------|-----------|--------|-------------|--------|
E|-----------|--------|-----------|--------|-----------|--------|-------------|--------|
                                .

[Chorus 3]

   G          F         G                   G          F         G
e|-3--------|-1-------|-3-3------|--------|-3--------|-1-------|-3-3------|--------|
B|-3--------|-1-------|-3-3------|--------|-3--------|-1-------|-3-3------|--------|
G|-4--------|-2-------|-4-4------|--------|-4--------|-2-------|-4-4------|--------|
D|-5--------|-3-------|-5-5------|--------|-5--------|-3-------|-5-5------|--------|
A|-5--------|-3-------|-5-5------|--------|-5--------|-3-------|-5-5------|--------|
E|-3--------|-1-------|-3-3------|--------|-3--------|-1-------|-3-3------|--------|
 |          |         |          |        |          |         |          |        |
e|-15-------|-13------|-15-15----|--------|-15-------|-13------|-15-15----|--------|
B|----------|---------|----------|--------|----------|---------|----------|--------|
G|----------|---------|----------|--------|----------|---------|----------|--------|
D|----------|---------|----------|--------|----------|---------|----------|--------|
A|----------|---------|----------|--------|----------|---------|----------|--------|
E|----------|---------|----------|--------|----------|---------|----------|--------|

G               F                G
That's when you reach for your revolver
G               F              G
That's when you reach for your gun


[Outro]

   PM
   D       C         F                 D       C         F
e|-----------------|-----------------|-----------------|-----------------|
B|-----------------|-----------------|-----------------|-----------------|
G|-----------------|-----------------|-----------------|-----------------|
D|-7-7-7-7-5-5-5-5-|-----------------|-7-7-7-7-5-5-5-5-|-----------------|
A|-5-5-5-5-3-3-3-3-|-3-3-3-3-3-3-3-3-|-5-5-5-5-3-3-3-3-|-3-3-3-3-3-3-3-3-|
E|-----------------|-1-1-1-1-1-1-1-1-|-----------------|-1-1-1-1-1-1-1-1-|

D5      C5        F5
Jonnie, out that gun down
D5      C5        F5
Jonnie, out that gun down
D5      C5        F5
Jonnie, out that gun down
D5      C5        F5
Jonnie, out that gun down


   D   C   F            D   C   F            D   C   F            D   C   F
e|-----------|--------|-----------|--------|-----------|--------|-----------|--------|
B|-3---1---1-|-(1)----|-3---1---1-|-(1)----|-3---1---1-|-(1)----|-3---1---1-|-(1)----|
G|-2---0---2-|-(2)----|-2---0---2-|-(2)----|-2---0---2-|-(2)----|-2---0---2-|-(2)----|
D|-0---2---3-|-(3)----|-0---2---3-|-(3)----|-0---2---3-|-(3)----|-0---2---3-|-(3)----|
A|-----3---3-|-(3)----|-----3---3-|-(3)----|-----3---3-|-(3)----|-----3---3-|-(3)----|
E|-----------|--------|-----------|--------|-----------|--------|-----------|--------|


D       C         F
Jonnie, out that gun down
D       C         F
Jonnie, out that gun down
D       C         F
Jonnie, out that gun down
D       C         F
Jonnie, out that gun down


   D   C   F            D   C   F            D   C   F            D   C     F
e|-----------|--------|-----------|--------|-----------|--------|-------------|--------|
B|-3---5---6-|-(6)----|-----------|--------|-----------|--------|-------------|--------|
G|-----------|--------|-7---5---5-|--------|-----------|--------|-------------|--------|
D|-----------|--------|-----------|-5/7----|-7---5---3-|-(3)----|-7---5\3/5-3-|-(3)----|
A|-----------|--------|-----------|--------|-----------|--------|-------------|--------|
E|-----------|--------|-----------|--------|-----------|--------|-------------|--------|
                                .

   D   C   F            D   C   F            D   C   F            D   C     F
e|-----------|--------|-----------|--------|-----------|--------|-------------|--------|
B|-3---5---6-|-(6)----|-----------|--------|-----------|--------|-------------|--------|
G|-----------|--------|-7---5---5-|--------|-----------|--------|-------------|--------|
D|-----------|--------|-----------|-5/7----|-7---5---3-|-(3)----|-7---5\3/5-3-|-(3)----|
A|-----------|--------|-----------|--------|-----------|--------|-------------|--------|
E|-----------|--------|-----------|--------|-----------|--------|-------------|--------|
                                .

************************************

| (n) Ghost note
| h   Hammer-on
| p   Pull-off
| b   Bend
| /   Slide up
| \   Slide down
| ~   Vibrato
| .   Staccato
| PM  Palm mute

************************************
Suggest correction
Creating personal tab
Creating personal tab
You can edit any tab online and save it as your Personal.

You can edit, replace or remove any tab part or add personal notes – all changes will be seen only by you.

Personal tabs can be accessed anytime from any device, even offline.
Learn more »
Give kudos to tab author, rate the tab!
1 2 3 4 5
comments
print report bad tab
guest
You may want to rate the tab now too:
select rating
Wanna post a correction for this tab? Suggest correction