Oops, an error
Loading. Please wait.

Sleeping My Day Away tab

version 3
version 3

Whole song

Interactive

by D.A.D.
18,712 views 18 this week
4 commentsread comments
1 2 3 4 5
x 11
add to favorites
×
Save as Personal and add changes to this tab that will be seen only by you. Learn more ›
×
You can save this tab as Personal to edit and correct it or add notes. All changes will be seen only by you. Learn more »
launch autoscroll
font size
0
reset
how to read this tab
guitar tuner
backing track
0:00
0:00
edit
Autoscroll
slow
fast
+/-
esc
set tempo
stop
Author
Difficulty
##############################
# DAD - Sleeping My Day Away #
#                            #
#     Tabbed by Grahnson     #
#   grahn58@hotmail.com      #
#                            #
#    Enjoy                   #
##############################

[0:00]
Intro:

 E|----------|
 B|----------|
 G|----3-----|
 D|----3-----|          a couple of times, and then:
 A|----1-----|
 E|----------|


[0:06]
Intro Guitar 1:
 E|-----------------|
 B|-----------------|
 G|--3-------8------|
 D|--1---4---6------|
 A|--1---4---6------|
 E|------2----------|

Intro Guitar 2:
 E|----------------------------------------|
 B|----------------------------------------|
 G|----------------------------------------|
 D|----------------------------------------|
 A|-------8------8-----8------4-----6------|
 E|---4/6----4/6---4/6----4/6---4/6--------| x2

 E|----------------------------------|
 B|----------------------------------|
 G|----------------------------------|
 D|-----------8----------------------|
 A|-----8-----------8-----9-9\8\6----|
 E|-4/6---4/6---4/6---4/6------------|

 E|------------------------------------|
 B|------------------------------------|
 G|------------------------------------|
 D|------------------------------------|
 A|------8-----8-----8-----4-4/6-8/6---|
 E|--4/6---4/6---4/6---4/6-------------|

[0:33]
Verse:
“Mumbling goodmorning & raising my head…”

 E|-----------------------------|
 B|-----------------------------|
 G|--3---5---6-------6---8---3--|
 D|--1---3---4---6---4---8---1--|
 A|--1---3---4---4---4---6---1--|
 E|--------------4--------------|

Second time: Don't play last chord =)


[0:59]
Chorus Guitar 1:
“From the pale lips of a youth who lay…”

 E|--------------------|
 B|--------------------|
 G|--3-------8---------|
 D|--1---4---6---------|       x4
 A|--1---4---6---------|
 E|------2-------------|

Chorus Guitar 2:
 E|---------------------------|
 B|---------------------------|
 G|---------------------------|
 D|---------------------------|         x4
 A|-------8-------------4-----|
 E|---4/6-----------4/6-------|

[1:28]
Intro

[1:34]
Verse 2 is basicly same as the first one exept
for a little thing like this in the middle:
Guitar 2:
 E|-------------------|
 B|-------------------|
 G|---5h6--3-----6----|
 D|----------3-6------|
 A|-------------------|
 E|-------------------|

[2:00]
Chorus

[2:31]
Intro

[2:43]
Solo: Guitar 2

 E|-----------------------------------|
 B|-----------------------------------|
 G|-----------------------------------|
 D|-----------------------------------|
 A|----6/8-8-8\6-6-6\4-4-4p3h4/6/8-8~-|
 E|-6---------------------------------|

 E|------------------------------|
 B|------------------------------|
 G|------------------------------|
 D|-----8-10-10b11-8\6\4---4-----|   I couldn't figure out the
 A|---8------------------6---6---|   "blur" at the end :/
 E|------------------------------|

 E|------------------------------------|
 B|------------------------------------|
 G|------------------------------------|
 D|--------------------8-----13\10/11--|
 A|---8---8---8-9--6-8b-8b-------------|
 E|----8b--8b--------------------------|

 E|---------------------------------------|
 B|--------------------------------10h11~-|
 G|--------------8h10p8----8-10-11--------|
 D|-------10-11-----------8-8--8----------|
 A|---8h9-------8h9-----------------------|
 E|---------------------------------------|

 E|---------------------------------|
 B|---------------7-7-6-3-----------|
 G|-6-6-3-6-6-3-6-6-6-5-4-----------| During this last one,
 D|-6-6-3-6-6-3-6-------------------| guitar 1 comes back in:
 A|---------------------------------|
 E|---------------------------------|

Guitar 1:
 E|-----------------|
 B|-----------------|
 G|--3-------8------|    Play this until:
 D|--1---4---6------|
 A|--1---4---6------|
 E|------2----------|

[3:59]
 E|--------------------------------|
 B|--------------------------------|
 G|-------8-------8----------------|
 D|---4---6---4---6---4--------3~~-|
 A|---4---6---4---6---2--------1~~-|
 E|---2-------2-------2--------1~~-|

            
            
Suggest correction
Creating personal tab
Creating personal tab
You can edit any tab online and save it as your Personal.

You can edit, replace or remove any tab part or add personal notes – all changes will be seen only by you.

Personal tabs can be accessed anytime from any device, even offline.
Learn more »
comments
print report bad tab
4 comments total. Showing first comments.
0 reply
GuitarWis 21 May 22, 2008 12:34 PM

Awesome tab there mate. I love the intro, and the verse is alot better and easyer than any of the other tabs i've seen. 5 stars!

0 reply
lazzle22 701 Jul 07, 2009 06:58 AM

Hey, awesome tab. However, I would play the thing in verse 2 like this:
E|-----------------------------------|
B|-----------------------------------|
G|--5h6--3------3-3-1--1-1-1--3------|
D|---------3--6--------1-1-1--3------|
A|-----------------------------------|
E|-----------------------------------|

It's propably not right, but that's how I'd play it =)

0 reply
lazzle22 701 Jul 07, 2009 07:01 AM

Hey, awesome tab. However, I would play the thing in verse 2 like this:
E|-----------------------------------|
B|-----------------------------------|
G|--5h6--3------3-3-1--1-1-1--3------|
D|---------3--6--------1-1-1--3------|
A|-----------------------------------|
E|-----------------------------------|

It's propably not right, but that's how I'd play it =)

guest
You may want to rate the tab now too:
select rating
Wanna post a correction for this tab? Suggest correction