Oops, an error
Loading. Please wait.

Class War Bass Tab

343 views 3 this week
no commentswrite comment
1 2 3 4 5
please rate
add to favorites
launch autoscroll
font size
0
reset
guitar tuner
Tab Pro tools
  • play this tab
  • loop segment
  • change instrument
  • show fretboard
  • metronome
×
Best way to learn
"Class War"
Autoscroll
slow
fast
+/-
esc
set tempo
stop
Contributor
Intro
G-----------|-----------|-----------|-----------|-----------|-----------|
D-----------|-----------|-----------|-----------|-----------|-----------|
A-----------|-------3-3-|-------3-3-|-3--1--3-3-|-3--1--3-3-|-3--1--3-3-|
E-----------|-----------|-----------|-----------|-----------|-----------|

G-----------|-----------|-----------|-----------|
D-----------|-----------|-----------|-----------|
A-3--1--3-3-|-3--1--3-3-|-3--1--3-3-|-3--1--3-3-|
E-----------|-----------|-----------|-----------|

Verse
G-----5-5-3*------------|-----5-5-3*------------|
D-----------------------|-----------------------|
A-3*---------1-1--3*----|-3*---------1-1--3*----|
E-----------------------|-----------------------|

Chorus
G-----------|-----------|-----------|-----------|-----------|-----------|
D-----------|-----------|-----------|-----------|-----------|-----------|
A-3--1--3-3-|-3--1--3-3-|-3--1--3-3-|-3--1--3-3-|-3--1--3-3-|-3--1--3-3-|
E-----------|-----------|-----------|-----------|-----------|-----------|

G-----------|-----------|
D-----------|-----------|
A-3--1--3-3-|-3--1--3-3-|
E-----------|-----------|

Verse
G-----5-5-3*------------|-----5-5-3*------------|
D-----------------------|-----------------------|
A-3*---------1-1--3*----|-3*---------1-1--3*----|
E-----------------------|-----------------------|

Chorus
G-----------|-----------|-----------|-----------|-----------|-----------|
D-----------|-----------|-----------|-----------|-----------|-----------|
A-3--1--3-3-|-3--1--3-3-|-3--1--3-3-|-3--1--3-3-|-3--1--3-3-|-3--1--3-3-|
E-----------|-----------|-----------|-----------|-----------|-----------|

G-----------|-----------|
D-----------|-----------|
A-3--1--3-3-|-3--1--3-3-|
E-----------|-----------|

Solo
G-----------|-----------|-----------|-----------|-----------|-----------|
D-----------|-----------|-----------|-----------|-----------|-----------|
A-3--1--3-3-|-3--1--3-3-|-3--1--3-3-|-3--1--3-3-|-3--1--3-3-|-3--1--3-3-|
E-----------|-----------|-----------|-----------|-----------|-----------|

G-----------|-----------|-----------|-----------|-----------|-----------|
D-----------|-----------|-----------|-----------|-----------|-----------|
A-3--1--3-3-|-3--1--3-3-|-3--1--3-3-|-3--1--3-3-|-3--1--3-3-|-3--1--3-3-|
E-----------|-----------|-----------|-----------|-----------|-----------|

G-----------|-----------|-----------|-----------|-----------|-----------|
D-----------|-----------|-----------|-----------|-----------|-----------|
A-----------|-----------|-----------|-----------|-----------|-----------|
E-3--1--3-3-|-3--1--3-3-|-3--1--3-3-|-3--1--3-3-|-3-3-3-3-3-|-3-3-3-3-3-|

Final Verse
G-----------------------|-----------------------|
D-----5-5-3*------------|-----5-5-3*------------|
A-----------------------|-----------------------|
E-3*---------1-1--3*----|-3*---------1-1--3*----|

Final Chorus
G-----------|-----------|-----------|-----------|-----------|-----------|
D-----------|-----------|-----------|-----------|-----------|-----------|
A-----------|-----------|-----------|-----------|-3--1--3-3-|-3--1--3-3-|
E-3--1--3-3-|-3--1--3-3-|-3--1--3-3-|-3--1--3-3-|-----------|-----------|

G-----------|-----------|-----------|-----------|-----------|-----------|
D-----------|-----------|-----------|-----------|-----------|-----------|
A-3--1--3-3-|-3--1--3-3-|-3--1--3-3-|-3--1--3-3-|-3--1--3-3-|-3--1--3-3-|
E-----------|-----------|-----------|-----------|-----------|-----------|
comments
We did not receive enough feedback on this tab! Please rate:
print report bad tab
1 2 3 4 5
I want to post or [tab]
guest
You may want to rate the tab now too:
select rating
Please do not post tabs as comments. Select "correction" instead!