Oops, an error
Loading. Please wait.

Doa Bass Tab

500 views 3 this week
no commentswrite comment
1 2 3 4 5
please rate
add to favorites
launch autoscroll
font size
0
reset
guitar tuner
Tab Pro tools
  • play this tab
  • loop segment
  • change instrument
  • show fretboard
  • metronome
×
Best way to learn
"Doa"
Autoscroll
slow
fast
+/-
esc
set tempo
stop
Contributor
Intro/Bridge
G---------------------------------------|
D---------------------------------------|
A-----------------------------3--3-3----|
E------------------------5--------------|

G-1/9----(----hold----)-----------------|
D---------------------------------------|
A-----------------------------3--3-3----|
E------------------------5--------------|

Main Riff/Verse
G---------------------------------------|
D---------------------------------------|
A-7-X-X-X-X-X-X-7-X-7---------3--3-3----|
E------------------------5--------------|

Chorus
G--------------------------------------------------------------|
D--------------------------------------------------------------|
A-------------5--5-5----------------3--3-3----------------5----|
E-3--3--3--3------------5--5--5--5------------3--3--3--3-------|

****************************************************************************
To avoid redundance i'll just left the labels
comments
We did not receive enough feedback on this tab! Please rate:
print report bad tab
1 2 3 4 5
I want to post or [tab]
guest
You may want to rate the tab now too:
select rating
Please do not post tabs as comments. Select "correction" instead!