Oops, an error
Loading. Please wait.

Fucked Up Baby Bass Tab

325 views 3 this week
no commentswrite comment
1 2 3 4 5
please rate
add to favorites
launch autoscroll
font size
0
reset
guitar tuner
Tab Pro tools
  • play this tab
  • loop segment
  • change instrument
  • show fretboard
  • metronome
Autoscroll
slow
fast
+/-
esc
set tempo
stop
Contributor
Main Riff (Come in at 3 seconds)
G-----------------------|
D-----------------------|
A-2-2--2--5-------------|
E------------5-5--5-5-5-| x6

Chorus
G------------------------------|
D------------------------------|
A-2--2-2-2-2-2-2---------------|     
E----------------5--5-2--2-2-2-| x4

Main Riff 
G-----------------------|
D-----------------------|
A-2-2--2--5-------------|
E------------5-5--5-5-5-| x10

Chorus
G------------------------------|
D------------------------------|
A-2--2-2-2-2-2-2---------------|     
E----------------5--5-2--2-2-2-| x4

Behind Solo
G-------------------------------------------|
D-------------------------------------------|
A-2--2--2--------------2--2--2-5--5-5--5-5--|
E---------5--5-5--5-5-----------------------|

G---------------------------------------|
D---------------------------------------|
A-2--2--2--------------2--2--2--9-7-5---|
E---------5--5-5--5-5-----------------5-| x3

Main Riff 
G------------------------------|
D------------------------------|
A-2--2-2-2-2-2-2---------------|     
E----------------5--5-2--2-2-2-| x12

Outro
G--------------------------------------------------------------|
D--------------------------------------------------------------|
A---------------------------------------------2----------------|
E-2--2-2--0--2--2-2--0--2--2-2--0--2--2-2--0-------------------|

G-----------------------------------------------|
D-----------------------------------------------|
A---------------------------------------------2-|
E-2--2-2--0--2--2-2--0--2--2-2--0--2--2-2--0----|
comments
We did not receive enough feedback on this tab! Please rate:
print report bad tab
1 2 3 4 5
I want to post or [tab]
guest
You may want to rate the tab now too:
select rating
Please do not post tabs as comments. Select "correction" instead!