Oops, an error
Loading. Please wait.

Fucked Up Baby Tab

646 views 3 this week
no commentswrite comment
1 2 3 4 5
excellent!
x 1
add to favorites
launch autoscroll
font size
0
reset
how to read this tab
guitar tuner
Tab Pro tools
  • play this tab
  • loop segment
  • change instrument
  • show fretboard
  • metronome
Autoscroll
slow
fast
+/-
esc
set tempo
stop
Contributor
Tabbers playing skills
beginner
-------------------------------------------------------------------------------
Fucked Up Baby - D.O.A.
Hardcore 81
-------------------------------------------------------------------------------
Tabbed by: axeslash
Email: holmzito@yahoo.com

Tuning: Both guitars Standard tuning

Guitar 1                       Guitars 1+2
e|-----------------------|     e|-----------------------|
B|-----------------------|     B|-----------------------|
G|-4-4--4--7-------------|     G|-4-4--4--7-------------|
D|-4-4--4--7--7-7--7-7-7-|     D|-4-4--4--7--7-7--7-7-7-|
A|-2-2--2--5--7-7--7-7-7-|     A|-2-2--2--5--7-7--7-7-7-|
E|------------5-5--5-5-5-| x2  E|------------5-5--5-5-5-| x6

Guitars 1+2                           Guitars 1+2
e|------------------------------|     e|-----------------------|
B|------------------------------|     B|-----------------------|
G|-4--4-4-4-4-4-4---------------|     G|-4-4--4--7-------------|
D|-4--4-4-4-4-4-4-7--7-4--4-4-4-|     D|-4-4--4--7--7-7--7-7-7-|
A|-2--2-2-2-2-2-2-7--7-4--4-4-4-|     A|-2-2--2--5--7-7--7-7-7-|
E|----------------5--5-2--2-2-2-| x4  E|------------5-5--5-5-5-| x2

Guitar 1+2                           Guitars 1+2
e|-----------------------------|     e|------------------------------| 
B|-----------------------------|     B|------------------------------| 
G|-4-X-X-X-X-X-X-7-------------|     G|-4--4-4-4-4-4-4---------------| 
D|-4-X-X-X-X-X-X-7--7-7--7-7-7-|     D|-4--4-4-4-4-4-4-7--7-4--4-4-4-|
A|-2-X-X-X-X-X-X-5--7-7--7-7-7-|     A|-2--2-2-2-2-2-2-7--7-4--4-4-4-|
E|------------------5-5--5-5-5-| x8  E|----------------5--5-2--2-2-2-| x4

Solo
Guitar 2
e|-10^--10^--10--10^-10-10^--10-10-10-10^--10^--10-10^h-10-10^h--|
B|---------------------------------------------------------------|
G|---------------------------------------------------------------|
D|---------------------------------------------------------------|
A|---------------------------------------------------------------|
E|---------------------------------------------------------------|
Guitar 1
e|-------------------------------------------|
B|-------------------------------------------|
G|-4--4--4--------------4--4--4-7--7-7--7-7--|
D|-4--4--4-7--7-7--7-7--4--4--4-7--7-7--7-7--|
A|-2--2--2-7--7-7--7-7--2--2--2-5--5-5--5-5--|
E|---------5--5-5--5-5-----------------------|

Guitar 2
e|-10^h--10^h--10--10^-10-10^--10-10-10-10^h-10^h-10^h-10^h-10^h-10^h-10^h\\-|
B|---------------------------------------------------------------------------|
G|---------------------------------------------------------------------------|
D|---------------------------------------------------------------------------|
A|---------------------------------------------------------------------------|
E|---------------------------------------------------------------------------|
Guitar 1
e|---------------------------------------|
B|---------------------------------------|
G|-4--4--4--------------4--4--4-11-9-7---|
D|-4--4--4-7--7-7--7-7--4--4--4-11-9-7-7-|
A|-2--2--2-7--7-7--7-7--2--2--2--9-7-5-7-|
E|---------5--5-5--5-5-----------------5-|

Guitar 2
e|---------------------------------------------------------------------------------|
B|-0-5-7^--7^----5-5-7-7-7-X--------12-12-10-12^h----12-12-10-10-12-12-10-10-12-12-|
G|---------------------------4-4---------------------------------------------------|
D|---------------------------------------------------------------------------------|
A|---------------------------------------------------------------------------------|
E|---------------------------------------------------------------------------------|
Guitar 1
e|---------------------------------------|
B|---------------------------------------|
G|-4--4--4--------------4--4--4-11-9-7---|
D|-4--4--4-7--7-7--7-7--4--4--4-11-9-7-7-|
A|-2--2--2-7--7-7--7-7--2--2--2--9-7-5-7-|
E|---------5--5-5--5-5-----------------5-|

Guitar 2
e|-10-10-7-7-----------10-7------10-7------10-7------10-7------10-7------10-7----7-10^w-|
B|-----------10-10-7-7------10-7------10-7------10-7------10-7------10-7------10--------|
G|--------------------------------------------------------------------------------------|
D|--------------------------------------------------------------------------------------|
A|--------------------------------------------------------------------------------------|
E|--------------------------------------------------------------------------------------|
Guitar 1
e|---------------------------------------|
B|---------------------------------------|
G|-4--4--4--------------4--4--4-11-9-7---|
D|-4--4--4-7--7-7--7-7--4--4--4-11-9-7-7-|
A|-2--2--2-7--7-7--7-7--2--2--2--9-7-5-7-|
E|---------5--5-5--5-5-----------------5-|

Guitars 1+2
e|------------------------------|
B|------------------------------|
G|-4--4-4-4-4-4-4---------------|
D|-4--4-4-4-4-4-4-7--7-4--4-4-4-|
A|-2--2-2-2-2-2-2-7--7-4--4-4-4-|
E|----------------5--5-2--2-2-2-| x12

Guitars 1+2
e|--------------------------------------------------------------|
B|--------------------------------------------------------------|
G|---------------------------------------------4----------------|
D|-4--4-4--2--4--4-4--2--4--4-4--2--4--4-4--2--4----------------|
A|-4--4-4--2--4--4-4--2--4--4-4--2--4--4-4--2--2----------------|
E|-2--2-2--0--2--2-2--0--2--2-2--0--2--2-2--0-------------------|

Guitars 1+2
e|------------------------------------------------|
B|------------------------------------------------|
G|---------------------------------------------4--|
D|-4--4-4--2--4--4-4--2--4--4-4--2--4--4-4--2--4--|
A|-4--4-4--2--4--4-4--2--4--4-4--2--4--4-4--2--2--|
E|-2--2-2--0--2--2-2--0--2--2-2--0--2--2-2--0-----|

| ^w whole step bend
| ^h half step bend
| ^  quarter step bend
| /  slide up
| \  slide down
| h  hammer-on
| p  pull-off
| ~  vibrato
| +  harmonic
| x  Mute note
===============================================================================
comments
We did not receive enough feedback on this tab! Please rate:
print report bad tab
1 2 3 4 5
I want to post or [tab]
guest
You may want to rate the tab now too:
select rating
Please do not post tabs as comments. Select "correction" instead!