Oops, an error
Loading. Please wait.

I Don't Give A Shit Bass Tab

212 views 1 this week
no commentswrite comment
1 2 3 4 5
please rate
add to favorites
launch autoscroll
font size
0
reset
guitar tuner
Tab Pro tools
  • play this tab
  • loop segment
  • change instrument
  • show fretboard
  • metronome
Autoscroll
slow
fast
+/-
esc
set tempo
stop
Contributor
Intro
G-----------------------|-----------------------|
D-----------------------|-----------------------|
A-----------------------|-----------------------|
E-----------------------|-3---------------------|

G-----------------------|-----------------------|
D-----------------------|-----------------------|
A-----------------2--0--|-----------------2--0--|
E-3-3-3-3-3-3-3-3-------|-3-3-3-3-3-3-3-3-------|

Verse ("...well I'm a fucking Bum") 
G-----------------------|-----------------------|
D-----------------------|-----------------------|
A-----------------2--0--|-----------------2--0--|
E-3-3-3-3-3-3-3-3-------|-3-3-3-3-3-3-3-3-------|

G-----------------------|-----------------------|
D-----------------------|-----------------------|
A-----------------2--0--|-----------------2--0--|
E-3-3-3-3-3-3-3-3-------|-3-3-3-3-3-3-3-3-------|

Chorus
G-----------|-----------|-----------------|
D-----------|-----------|-----------------|
A-4/5-5-5-5-|-4/5-5-5-5-|-4/5-4/5-4/5-4/5-|
E-----------|-----------|-----------------|

Main Riff
G-----------------------|-----------------------|
D-----------------------|-----------------------|
A-----------------2--0--|-----------------2--0--|
E-3-3-3-3-3-3-3-3-------|-3-3-3-3-3-3-3-3-------|


Verse ("...well I'm a fucking Creep") 
G-----------------------|-----------------------|
D-----------------------|-----------------------|
A-----------------2--0--|-----------------2--0--|
E-3-3-3-3-3-3-3-3-------|-3-3-3-3-3-3-3-3-------|

G-----------------------|-----------------------|
D-----------------------|-----------------------|
A-----------------2--0--|-----------------2--0--|
E-3-3-3-3-3-3-3-3-------|-3-3-3-3-3-3-3-3-------|

Chorus
G-----------|-----------|-----------------|
D-----------|-----------|-----------------|
A-4/5-5-5-5-|-4/5-5-5-5-|-4/5-4/5-4/5-4/5-|
E-----------|-----------|-----------------|

Bridge
G-----------------------|-----------------------|
D-----5---5---5---------|-----5---5---5---------|
A-----------------2--0--|-----------------2--0--|
E-3---------------------|-3---------------------|

G-----------------------|-----------------------|
D-----5---5---5---------|-----5---5---5---------|
A-----------------2--0--|-----------------2--0--|
E-3---------------------|-3---------------------|

G-----------|-----------|--------------------------------------------------|
D-----------|-----------|-----------------------------------44556677665544-|
A-4/5-5-5-5-|-4/5-5-5-5-|-4/5-4/5-4/5-5-5-5-4/5-4/5-5-5-5-55---------------|
E-----------|-----------|--------------------------------------------------|

Main Riff
G-----------------------|-----------------------|
D-----------------------|-----------------------|
A-----------------2--0--|-----------------2--0--|
E-3-3-3-3-3-3-3-3-------|-3-3-3-3-3-3-3-3-------|


Verse ("...well I'm a fucking Bum") 
G-----------------------|-----------------------|
D-----------------------|-----------------------|
A-----------------2--0--|-----------------2--0--|
E-3-3-3-3-3-3-3-3-------|-3-3-3-3-3-3-3-3-------|

G-----------------------|-----------------------|
D-----------------------|-----------------------|
A-----------------2--0--|-----------------2--0--|
E-3-3-3-3-3-3-3-3-------|-3-3-3-3-3-3-3-3-------|

Chorus
G-----------|-----------|-----------------|
D-----------|-----------|-----------------|
A-4/5-5-5-5-|-4/5-5-5-5-|-4/5-4/5-4/5-4/5-|
E-----------|-----------|-----------------|
comments
We did not receive enough feedback on this tab! Please rate:
print report bad tab
1 2 3 4 5
I want to post or [tab]
guest
You may want to rate the tab now too:
select rating
Please do not post tabs as comments. Select "correction" instead!