Oops, an error
Loading. Please wait.

I Hate You Bass Tab

193 views 1 this week
no commentswrite comment
1 2 3 4 5
please rate
add to favorites
launch autoscroll
font size
0
reset
guitar tuner
Tab Pro tools
  • play this tab
  • loop segment
  • change instrument
  • show fretboard
  • metronome
×
Best way to learn
"I Hate You"
Autoscroll
slow
fast
+/-
esc
set tempo
stop
Contributor
Intro
G--------------------------------------------|
D--------------------------------------------|
A-5----------5----------5----------5---------|
E---5---3-5----5---3-5----5---3-5----5---3-5-|

Verse                                                      x3
G------------------------------------------------------------|
D---------5-5-5-5----------5-------------5-5-5-5-------------|
A-5-5-5-5---------5-5-5-5----5---5-5-5-5----------5-----5----|
E---------------------------------------------------5-----5--|

Chorus
G------------------------------------------|
D------------------------------------------|
A-5-5-------5-5-------5-5-------5-----5----|
E------3-3-------3-3-------3-3----5-----5--|

Verse                                                      x3
G------------------------------------------------------------|
D---------5-5-5-5----------5-------------5-5-5-5-------------|
A-5-5-5-5---------5-5-5-5----5---5-5-5-5----------5-----5----|
E---------------------------------------------------5-----5--|

Chorus
G------------------------------------------|
D------------------------------------------|
A-5-5-------5-5-------5-5-------5-----5----|
E------3-3-------3-3-------3-3----5-----5--|

Solo                                                       x2
G------------------------------------------------------------|
D---------5-5-5-5----------5-------------5-5-5-5-------------|
A-5-5-5-5---------5-5-5-5----5---5-5-5-5----------5-----5----|
E---------------------------------------------------5-----5--|

Chorus
G------------------------------------------|
D------------------------------------------|
A-5-5-------5-5-------5-5-------5-----5----|
E------3-3-------3-3-------3-3----5-----5--|

Outro                                 (repeat and fade out)
G------------------------------------------------------------|
D---------5-5-5-5----------5-------------5-5-5-5-------------|
A-5-5-5-5---------5-5-5-5----5---5-5-5-5----------5-----5----|
E---------------------------------------------------5-----5--|
comments
We did not receive enough feedback on this tab! Please rate:
print report bad tab
1 2 3 4 5
I want to post or [tab]
guest
You may want to rate the tab now too:
select rating
Please do not post tabs as comments. Select "correction" instead!