Oops, an error
Loading. Please wait.

I'm Right You're Wrong Bass Tab

209 views 1 this week
no commentswrite comment
1 2 3 4 5
please rate
add to favorites
launch autoscroll
font size
0
reset
guitar tuner
Tab Pro tools
  • play this tab
  • loop segment
  • change instrument
  • show fretboard
  • metronome
×
Best way to learn
"I'm Right You're Wrong"
Autoscroll
slow
fast
+/-
esc
set tempo
stop
Contributor
Intro                  x3
G------------------------|----------------------------------------------|
D------------------------|----------------------------------------------|
A----------------5-5-5-5-|----------------5-----------------------------|
E------------------------|----------------------------------------------|

Chours
G-----------------------------------|-----------------------------------|
D--------------5-5------------------|--------------5-5--7-7-7-7-7-7-7-7-|
A-5-5-5-5-5-5-------5-5-5-5-5-5-----|-5-5-5-5-5-5-----------------------|
E-------------------------------5-5-|-----------------------------------|

Verse
G--------------------------------------------------------------------------|
D--------------------------------------------------------------------------|
A-----------------5-5-5-5--------------------------------------------------|
E-7-7-7-7-3-3-3-3---------5-5-5-5-7-7-7-7-3-3-3-3--5-5--5-5--5-5--5-5--5-5-|

Chours
G-----------------------------------|-----------------------------------|
D--------------5-5------------------|--------------5-5--7-7-7-7-7-7-7-7-|
A-5-5-5-5-5-5-------5-5-5-5-5-5-----|-5-5-5-5-5-5-----------------------|
E-------------------------------5-5-|-----------------------------------|

Verse
G--------------------------------------------------------------------------|
D--------------------------------------------------------------------------|
A-----------------5-5-5-5--------------------------------------------------|
E-7-7-7-7-3-3-3-3---------5-5-5-5-7-7-7-7-3-3-3-3--5-5--5-5--5-5--5-5--5-5-|

Solo
G-----------------------------------|-----------------------------------|
D-----------------------------------|-------------------7-7-7-7-7-7-7-7-|
A-5-5-5-5-5-5-5-5-5-5-5-5-5-5-5-----|-5-5-5-5-5-5-5-5-5-----------------|
E-------------------------------5-5-|-----------------------------------|

G-----------------------------------|-----------------------------------|
D-----------------------------------|-----------5-7--5-7--5-7--5-7--5-7-|
A-5-5-5-5-5-5-5-5-5-5-5-5-5-5-5-----|-5-5-5-5-5-------------------------|
E-------------------------------5-5-|-----------------------------------|

Intro                  x3
G------------------------|
D------------------------|
A----------------5-5-5-5-|
E------------------------|

Chours
G-----------------------------------|-----------------------------------|
D---------------5-5-----------------|-----------5-7--5-7--5-7--5-7--5-7-|
A-5-5-5-5-5-5-------5-5-5-5-5-5-----|-5-5-5-5-5-------------------------|
E-------------------------------5-5-|-----------------------------------|

G-----------------------------------|-----------------------------------|
D--------------5-5------------------|--------------5-5--7-7-7-7-7-7-7-7-|
A-5-5-5-5-5-5-------5-5-5-5-5-5-----|-5-5-5-5-5-5-----------------------|
E-------------------------------5-5-|-----------------------------------|

Outro
G-------------------------------------------------|
D-7-7-7-7-7-7-7-7-5-5-5-5-5-5-5-5-----------------|
A----------------------------------5-5--5-5--5-5--|
E-------------------------------------------------|
comments
We did not receive enough feedback on this tab! Please rate:
print report bad tab
1 2 3 4 5
I want to post or [tab]
guest
You may want to rate the tab now too:
select rating
Please do not post tabs as comments. Select "correction" instead!