Oops, an error
Loading. Please wait.

New Age Bass Tab

550 views 1 this week
no commentswrite comment
1 2 3 4 5
excellent!
x 1
add to favorites
launch autoscroll
font size
0
reset
guitar tuner
Tab Pro tools
  • play this tab
  • loop segment
  • change instrument
  • show fretboard
  • metronome
Autoscroll
slow
fast
+/-
esc
set tempo
stop
Contributor
Intro
G-------------|-------------|
D---5-5-------|---5-5-------|
A-5-----------|-5-----------|
E--------5*---|--------5*---|

Verse
G-------------|-------------|-------------|-------------|
D---5-5-------|---5-5-------|---5-5-------|---5-5-------|
A-5-----------|-5-----------|-5-----------|-5-----------|
E-------5-5-5-|-------5-5-5-|-------5-5-5-|-------5-5-5-|

Chorus
G-----------------|-----------------|-----------------|-----------------|
D-----------------|-----------------|-----------------|-----------------|
A-2-2-2-2-5-5-5-5-|-2-2-2-2-5-5-5-5-|-2-2-2-2-5-5-5-5-|-0-0-0-0---------|
E-----------------|-----------------|-----------------|---------5-3-2-0-|

Verse
G-------------|-------------|-------------|-------------|
D---5-5-------|---5-5-------|---5-5-------|---5-5-------|
A-5-----------|-5-----------|-5-----------|-5-----------|
E-------5-5-5-|-------5-5-5-|-------5-5-5-|-------5-5-5-|

Chorus
G-----------------|-----------------|-----------------|-----------------|
D-----------------|-----------------|-----------------|-----------------|
A-2-2-2-2-5-5-5-5-|-2-2-2-2-5-5-5-5-|-2-2-2-2-5-5-5-5-|-0-0-0-0---------|
E-----------------|-----------------|-----------------|---------5-3-2-0-|

Verse
G-------------|-------------|-------------|-------------|
D---5-5-------|---5-5-------|---5-5-------|---5-5-------|
A-5-----------|-5-----------|-5-----------|-5-----------|
E-------5-5-5-|-------5-5-5-|-------5-5-5-|-------5-5-5-|

Bridge
G----------------------------|---------------------------------|
D----------------------------|---------------------------------|
A-----------------5--5--5--5-|-----------------0-0-0-0-0-0-0-0-|
E-3-3-3-3-3-3-3-3------------|-3-3-3-3-3-3-3-3-----------------|

Solo
G---------------------------|---------------------------------|
D---------------------------|---------------------------------|
A-2-2-2-2----------5----5---|-2-2-2-2---------0-0-0-0-0-0-0-0-|
E---------3-3-3-3-5--5-5--5-|---------3-3-3-3-----------------|

Solo
G---------------------------|---------------------------------|
D---------------------------|---------------------------------|
A-2-2-2-2----------5----5---|-2-2-2-2---------0-0-0-0---------|
E---------3-3-3-3-5--5-5--5-|---------3-3-3-3---------5-3-2-0-|

Verse
G-------------|-------------|-------------|-------------|
D---5-5-------|---5-5-------|---5-5-------|---5-5-------|
A-5-----------|-5-----------|-5-----------|-5-----------|
E-------5-5-5-|-------5-5-5-|-------5-5-5-|-------5-5-5-|

Chorus
G-----------------|-----------------|-----------------|-----------------|
D-----------------|-----------------|-----------------|-----------------|
A-2-2-2-2-5-5-5-5-|-2-2-2-2-5-5-5-5-|-2-2-2-2-5-5-5-5-|-0-0-0-0---------|
E-----------------|-----------------|-----------------|---------5-3-2-0-|

Verse
G-------------|-------------|-------------|-------------|
D---5-5-------|---5-5-------|---5-5-------|---5-5-------|
A-5-----------|-5-----------|-5-----------|-5-----------|
E-------5-5-5-|-------5-5-5-|-------5-5-5-|-------5-5-5-|

Verse
G-------------|-------------|-------------|-------------|
D---5-5-------|---5-5-------|---5-5-------|---5-5-------|
A-5-----------|-5-----------|-5-----------|-5-----------|
E-------5-5-5-|-------5-5-5-|-------5-5-5-|-------5-5-5-|

comments
We did not receive enough feedback on this tab! Please rate:
print report bad tab
1 2 3 4 5
I want to post or [tab]
guest
You may want to rate the tab now too:
select rating
Please do not post tabs as comments. Select "correction" instead!