Oops, an error
Loading. Please wait.

Race Riot Bass Tab

230 views 1 this week
no commentswrite comment
1 2 3 4 5
excellent!
x 1
add to favorites
launch autoscroll
font size
0
reset
guitar tuner
Tab Pro tools
  • play this tab
  • loop segment
  • change instrument
  • show fretboard
  • metronome
Autoscroll
slow
fast
+/-
esc
set tempo
stop
Contributor
Intro
G---------------------------|
D---------------------------|
A-7-7----------7-7----------|
E---------------------------|

Verse
G-----------------|
D-----------------|
A--7-7--------3-3-|
E------3-3--5-----|

Chorus
G-------------------|
D-------------------|
A--7-77-3-33-5-55-7-|
E-------------------|
comments
We did not receive enough feedback on this tab! Please rate:
print report bad tab
1 2 3 4 5
I want to post or [tab]
guest
You may want to rate the tab now too:
select rating
Please do not post tabs as comments. Select "correction" instead!