Oops, an error
Loading. Please wait.

Smash The State Bass Tab

170 views 1 this week
no commentswrite comment
1 2 3 4 5
please rate
add to favorites
launch autoscroll
font size
0
reset
guitar tuner
Tab Pro tools
  • play this tab
  • loop segment
  • change instrument
  • show fretboard
  • metronome
×
Best way to learn
"Smash The State"
Autoscroll
slow
fast
+/-
esc
set tempo
stop
Contributor
Intro                   x2
G-------------------------|
D-------------------------|
A-6/7-6/7-6/7-------------|
E-------------6/7-6/7-6/7-|

Verse               x5                                     x3
G------------------------|------------|------------------------|------------|
D------------------------|------------|------------------------|------------|
A-6/7-7-7-7-7------------|------------|-6/7-7-7-7-7------------|------------|
E------------6/7/6/7/6/7-|-5-5-5-4--7-|------------6/7/6/7/6/7-|-5-5-5-4--7-|

Chorus
G-------------------------------|
D-------------------------------|
A-------------------------------|
E-3-3-3-3-5-5-5-5-7-7-7-7-7*----|

Verse               x5                                     x3
G------------------------|------------|------------------------|------------|
D------------------------|------------|------------------------|------------|
A-6/7-7-7-7-7------------|------------|-6/7-7-7-7-7------------|------------|
E------------6/7/6/7/6/7-|-5-5-5-4--7-|------------6/7/6/7/6/7-|-5-5-5-4--7-|


Chorus
G-------------------------------|
D-------------------------------|
A-------------------------------|
E-3-3-3-3-5-5-5-5-7-7-7-7-7*----|

Solo
G-------------------------------------------------------------------------|
D-2-2-2-2-2-2-2---------------2-2-2-2-2-2-2-------------------------------|
A---------------3-3-3-3-3-3-3---------------3-3-3-3-3-3-3-2-2-2-2-2-2-2*--|
E-------------------------------------------------------------------------|

Verse  (Repeat till end)  
G------------------------|
D------------------------|
A-6/7-7-7-7-7------------|
E------------6/7/6/7/6/7-|
comments
We did not receive enough feedback on this tab! Please rate:
print report bad tab
1 2 3 4 5
I want to post or [tab]
guest
You may want to rate the tab now too:
select rating
Please do not post tabs as comments. Select "correction" instead!