Oops, an error
Loading. Please wait.

The Enemy Bass Tab

304 views 6 this week
no commentswrite comment
1 2 3 4 5
please rate
add to favorites
launch autoscroll
font size
0
reset
guitar tuner
Tab Pro tools
  • play this tab
  • loop segment
  • change instrument
  • show fretboard
  • metronome
×
Best way to learn
"The Enemy"
Autoscroll
slow
fast
+/-
esc
set tempo
stop
Contributor
Intro
G------------|------------|------------|------------|
D------------|------------|------------|------------|
A-7-7--------|-7-7--------|-7-7--------|-7-7--------|
E------7--5--|------7--5--|------7--5--|------7--5--|

Verse
G---------------|---------------|---------------|---------------|
D---------------|---------------|---------------|---------------|
A-7-7-7-7-------|-7-7-7-7-------|-7-7-7-7-------|-7-7-7-7-------|
E---------7--5--|---------7--5--|---------7--5--|---------7--5--|

Chorus
G----------------------------------|----------------------------------|
D----------------------------------|----------------------------------|
A----6--9----4--7--7-7-7-7-7-7-7-7-|----6--9----4--7--7-7-7-7-7-7-7-7-|
E-7-------5------------------------|-7-------5------------------------|

just listen for order
comments
We did not receive enough feedback on this tab! Please rate:
print report bad tab
1 2 3 4 5
I want to post or [tab]
guest
You may want to rate the tab now too:
select rating
Please do not post tabs as comments. Select "correction" instead!