Oops, an error
Loading. Please wait.

The Great White Hope Bass Tab

154 views 1 this week
no commentswrite comment
1 2 3 4 5
please rate
add to favorites
launch autoscroll
font size
0
reset
guitar tuner
Tab Pro tools
  • play this tab
  • loop segment
  • change instrument
  • show fretboard
  • metronome
×
Best way to learn
"The Great White Hope"
Autoscroll
slow
fast
+/-
esc
set tempo
stop
Contributor
Intro                           x4
G---------------------------------|-----------------|
D---------------------------------|-----------------|
A-5-5-5-5-4-4-4-4-2-2-2-2-0-0-0-0-|-5-5-5-5-5-5-5-5-|
E---------------------------------|-----------------|

Verse                                           x2
G-------------------------------------------------|
D-------------------------------------------------|
A---------------------------------5-5-5-5---5---5-|
E-5-5-5-5-5-5-5-5-5-5-5-5-5-5-5-5-----------------|

G----------------------------------------------------------------------|
D----------------------------------7-7--5-5--4-4--2-2------------------|
A-2-2-2-2-2-2-2-2--------------------------------------5-5-5-5-5-5-5-5-|
E-----------------3-3-3-3-3-3-3-3--------------------------------------|
                                                x2
G-------------------------------------------------|
D-------------------------------------------------|
A---------------------------------5-5-5-5---5---5-|
E-5-5-5-5-5-5-5-5-5-5-5-5-5-5-5-5-----------------|

G----------------------------------------|
D----------------------------------------|
A-2-2-2-2-2-2-2-2---------12--14-14--16--|
E-----------------5-5-5-5----------------|

Chorus                          x4
G---------------------------------|---------------------------------|
D---------------------------------|---------------------------------|
A-5-5-5-5-4-4-4-4-2-2-2-2-0-0-0-0-|-5-5-5-5-5-5-5-5-5-5-5-5-5-5-5-5-|
E---------------------------------|---------------------------------|

Verse                                           x2
G-------------------------------------------------|
D-------------------------------------------------|
A---------------------------------5-5-5-5---5---5-|
E-5-5-5-5-5-5-5-5-5-5-5-5-5-5-5-5-----------------|

G----------------------------------------------------------------------|
D----------------------------------7-7--5-5--4-4--2-2------------------|
A-2-2-2-2-2-2-2-2--------------------------------------5-5-5-5-5-5-5-5-|
E-----------------3-3-3-3-3-3-3-3--------------------------------------|
                                                x2
G-------------------------------------------------|
D-------------------------------------------------|
A---------------------------------5-5-5-5---5---5-|
E-5-5-5-5-5-5-5-5-5-5-5-5-5-5-5-5-----------------|

G----------------------------------------|
D----------------------------------------|
A-2-2-2-2-2-2-2-2---------12--14-14--16--|
E-----------------5-5-5-5----------------|

Chorus           (repeat till end) 
G---------------------------------|
D---------------------------------|
A-5-5-5-5-4-4-4-4-2-2-2-2-0-0-0-0-|
E---------------------------------|
comments
We did not receive enough feedback on this tab! Please rate:
print report bad tab
1 2 3 4 5
I want to post or [tab]
guest
You may want to rate the tab now too:
select rating
Please do not post tabs as comments. Select "correction" instead!