Oops, an error
Loading. Please wait.

The Prisoner Bass Tab

467 views 1 this week
no commentswrite comment
1 2 3 4 5
excellent!
x 1
add to favorites
launch autoscroll
font size
0
reset
guitar tuner
Tab Pro tools
  • play this tab
  • loop segment
  • change instrument
  • show fretboard
  • metronome
Autoscroll
slow
fast
+/-
esc
set tempo
stop
Contributor
Difficulty
intermediate
For the most part i think this is it, but some of it is messed up i think (around the middle)

G-------------------------|
D-------------------------|   repeat a few times, then play
A---55-55-555-5-----------|
E--------------66-6-33-3--|

G-------------------------|
D-------------------------|
A---------------33--------|   repeat and listen to the shifts in the song
E------33-66-33-----------|

G-------------------------|
D-------------------------|   this is the middle part im not sure about
A-------------------------|
E----44-55-44-55-44-55----|

G-------------------------|
D-------------------------|   At the very end of the song this happens
A--5-5-5-5----------------|
E----------6-6-6-6--------|

G-------------------------|
D-------------------------|   This is the outro
A-5555555555--------------|
E-----------6666666666----|

This tab may need some tweaking, but overall it sounds pretty good.
comments
We did not receive enough feedback on this tab! Please rate:
print report bad tab
1 2 3 4 5
I want to post or [tab]
guest
You may want to rate the tab now too:
select rating
Please do not post tabs as comments. Select "correction" instead!