Oops, an error
Loading. Please wait.

Two Plus Two Bass Tab

364 views 1 this week
no commentswrite comment
1 2 3 4 5
please rate
add to favorites
launch autoscroll
font size
0
reset
guitar tuner
Tab Pro tools
  • play this tab
  • loop segment
  • change instrument
  • show fretboard
  • metronome
×
Best way to learn
"Two Plus Two"
Autoscroll
slow
fast
+/-
esc
set tempo
stop
Contributor
Intro
G---------------------------------------|
D---------------------------------------|
A-5--------3--------10------10-10-9-7-5-|
E---------------------------------------|

G---------------------------------------|
D---------------------------------------|
A-5--------3--------------------223344--|
E-------------------3-------3-3---------|

G---------------------------------------|
D---------------------------------------|
A-5--------3--------10------10-10-9-7-5-|
E---------------------------------------|

G---------------------------------------|
D---------------------------------------|
A-5--------3----------------------------|
E-------------------3-3-3-3-3-3-3-3-3-3-|

Verse
G---------------------------------------------------------| x6
D---------------------------------------------------------|
A-5-5-5-----------------------5-5-5--3--3-3-3-3-3-3-3-3-3-|
E--------3--3-3-3-3-3-3-3-3-3-----------------------------|

Chorus                 x3
G---------------------|---------------------------------|
D---------------------|---------------------------------|
A-----5-5-3--3-3--3-3-|-2-2-2-2-2-2-2-2-3-3-3-3-3-3-3-3-|
E-3-3-----------------|---------------------------------|

Intro
G---------------------------------------|
D---------------------------------------|
A-5--------3--------10------10-10-9-7-5-|
E---------------------------------------|

G---------------------------------------|
D---------------------------------------|
A-5--------3--------------------223344--|
E-------------------3-------3-3---------|

G---------------------------------------|
D---------------------------------------|
A-5--------3--------10------10-10-9-7-5-|
E---------------------------------------|

G---------------------------------------|
D---------------------------------------|
A-5--------3----------------------------|
E-------------------3-3-3-3-3-3-3-3-3-3-|

Verse
G---------------------------------------------------------| x4
D---------------------------------------------------------|
A-5-5-5-----------------------5-5-5--3--3-3-3-3-3-3-3-3-3-|
E--------3--3-3-3-3-3-3-3-3-3-----------------------------|

Chorus                 x3
G---------------------|---------------------------------|
D---------------------|---------------------------------|
A-----5-5-3--3-3--3-3-|-2-2-2-2-2-2-2-2-3-3-3-3-3-3-3-3-|
E-3-3-----------------|---------------------------------|

Bridge 
G---------------------|----------------------------------------|
D---------------------|-5--5-5-5-------------------------------|
A-5----5----5----5----|-----------5--5-5-5--7--7-7-7--3--3-3-3-|
E---------------------|----------------------------------------|

G----------------------------------------|
D-5--5-5-5-------------------------------|
A-----------5--5-5-5--7--7-7-7--3--3-3-3-|
E----------------------------------------|

Verse 3                                                              x4
G-------------------------------------------------------------------|
D-5-5-5-5-5-5-5-5---------------------------------------------------|
A-----------------5-5-5-5-5-5-5-5-5-7-7-7-7-7-7-7-7-3-3-3-3-3-3-3-3-|
E-------------------------------------------------------------------|

G---------------------|
D---------------------|
A-5----5----5----5----|
E---------------------|

Chorus                 x8
G---------------------|
D---------------------|
A-----5-5-3--3-3--3-3-|
E-3-3-----------------|

END
G---------------------------------------|
D---------------------------------------|
A-5--------3--------10------------------|
E---------------------------------------|



comments
We did not receive enough feedback on this tab! Please rate:
print report bad tab
1 2 3 4 5
I want to post or [tab]
guest
You may want to rate the tab now too:
select rating
Please do not post tabs as comments. Select "correction" instead!