Oops, an error
Loading. Please wait.

Waiting For You Bass Tab

224 views 1 this week
no commentswrite comment
1 2 3 4 5
excellent!
x 1
add to favorites
launch autoscroll
font size
0
reset
guitar tuner
Tab Pro tools
  • play this tab
  • loop segment
  • change instrument
  • show fretboard
  • metronome
Autoscroll
slow
fast
+/-
esc
set tempo
stop
Contributor
Intro
G-------------------------------------|
D-------------------------------------|
A-7-7-7-7-7-7-10-10-10-10--9--9--9--9-|
E-------------------------------------| x4

Verse
G---------------------|
D---------------------|
A-7-7-7-7-7-7-7-------|
E----------------8--7-| x4

Chorus
G---------------------------------------------------------------|
D---------------------------------------------------------------|
A-10--10-10--10-10---9---9--9---9--9-7-5-7-7-7-7--7-5-7-7-7-7-7-|
E---------------------------------------------------------------| x2

G-----------------------------------------------------------------------|
D-----------------------------------------------------------------------|
A-10--10-10-10-10-10-10-12--12-12-12-12-12-12-15--15-15-15-15-15-15-14\-|
E-----------------------------------------------------------------------|

Main Riff
G-------------------------------------|
D-------------------------------------|
A-7-7-7-7-7-7-10-10-10-10--9--9--9--9-|
E-------------------------------------| x4

Verse
G---------------------|
D---------------------|
A-7-7-7-7-7-7-7-------|
E----------------8--7-| x4

Chorus
G---------------------------------------------------------------|
D---------------------------------------------------------------|
A-10--10-10--10-10---9---9--9---9--9-7-5-7-7-7-7--7-5-7-7-7-7-7-|
E---------------------------------------------------------------| x2

G-----------------------------------------------------------------------|
D-----------------------------------------------------------------------|
A-10--10-10-10-10-10-10-12--12-12-12-12-12-12-15--15-15-15-15-15-15-14\-|
E-----------------------------------------------------------------------|

Outro
G-------------------------------------------------------------|
D-------------------------------------------------------------|
A-------------------------------0--0-0-0-0-0-0-3--3-3-3-3-3-3-|
E-0--0-0-0-0-0-0-3--3-3-3-3-3-3-------------------------------|

G------------------------------------------------------------------|
D------------------------------------------------------------------|
A-7--7-7-7-7-7-7-10--10-10-10-10-10-10-12--12-12-12-12-12-12-15----|
E------------------------------------------------------------------|
comments
We did not receive enough feedback on this tab! Please rate:
print report bad tab
1 2 3 4 5
I want to post or [tab]
guest
You may want to rate the tab now too:
select rating
Please do not post tabs as comments. Select "correction" instead!