Oops, an error
Loading. Please wait.

Waiting For You Tab

252 views 1 this week
no commentswrite comment
1 2 3 4 5
excellent!
x 1
add to favorites
launch autoscroll
font size
0
reset
how to read this tab
guitar tuner
Tab Pro tools
  • play this tab
  • loop segment
  • change instrument
  • show fretboard
  • metronome
Autoscroll
slow
fast
+/-
esc
set tempo
stop
Contributor
Tabbers playing skills
beginner
-------------------------------------------------------------------------------
Waiting For You - D.O.A.
Hardcore 81
-------------------------------------------------------------------------------
Tabbed by: axeslash
Email: holmzito@yahoo.com

Tuning: Both guitars in Standard tuning

Guitars 1+2
e|-------------------------------------|
B|-------------------------------------|
G|-------------------------------------|
D|-9-7-9-9-9-9-12-12-12-12-11-11-11-11-|
A|-7-5-7-7-7-7-10-10-10-10--9--9--9--9-|
E|-------------------------------------| x4

Guitars 1+2
e|---------------------|
B|---------------------|
G|---------------------|
D|-9-X-X-X-X-X-X-------|
A|-7-X-X-X-X-X-X-10--9-|
E|----------------8--7-| x4

Guitars 1+2
e|---------------------------------------------------------------|
B|---------------------------------------------------------------|
G|---------------------------------------------------------------|
D|-12--12-12--12-12--11--11-11--11-11-9-7-9-9-9-9--9-7-9-9-9-9-9-|
A|-10--10-10--10-10---9---9--9---9--9-7-5-7-7-7-7--7-5-7-7-7-7-7-|
E|---------------------------------------------------------------| x2

Guitars 1+2
e|-----------------------------------------------------------------------|
B|-----------------------------------------------------------------------|
G|-----------------------------------------------------------------------|
D|-12--12-12-12-12-12-12-14--14-14-14-14-14-14-17--17-17-17-17-17-17-16\-|
A|-10--10-10-10-10-10-10-12--12-12-12-12-12-12-15--15-15-15-15-15-15-14\-|
E|-----------------------------------------------------------------------|

Guitar 1
e|-------------------------------------|
B|-------------------------------------|
G|-------------------------------------|
D|-9-7-9-9-9-9-12-12-12-12-11-11-11-11-|
A|-7-5-7-7-7-7-10-10-10-10--9--9--9--9-|
E|-------------------------------------| x4

Guitar 2
e|-7-7-7-7-7-7-7-7-7-7-7-7-7-7-7-7-7-7-|
B|-7-7-7-7-7-7-7-7-7-7-7-7-7-7-7-7-7-7-|
G|-7-7-7-7-7-7-7-7-7-7-7-7-7-7-7-7-7-7-|
D|-7-7-7-7-7-7-7-7-7-7-7-7-7-7-7-7-7-7-|
A|-7-7-7-7-7-7-7-7-7-7-7-7-7-7-7-7-7-7-|
E|-7-7-7-7-7-7-7-7-7-7-7-7-7-7-7-7-7-7-| x4

Guitars 1+2
e|---------------------|
B|---------------------|
G|---------------------|
D|-9-X-X-X-X-X-X-------|
A|-7-X-X-X-X-X-X-10--9-|
E|----------------8--7-| x4

Guitars 1+2
e|---------------------------------------------------------------|
B|---------------------------------------------------------------|
G|---------------------------------------------------------------|
D|-12--12-12--12-12--11--11-11--11-11-9-7-9-9-9-9--9-7-9-9-9-9-9-|
A|-10--10-10--10-10---9---9--9---9--9-7-5-7-7-7-7--7-5-7-7-7-7-7-|
E|---------------------------------------------------------------| x2

Guitars 1+2
e|-----------------------------------------------------------------------|
B|-----------------------------------------------------------------------|
G|-----------------------------------------------------------------------|
D|-12--12-12-12-12-12-12-14--14-14-14-14-14-14-17--17-17-17-17-17-17-16\-|
A|-10--10-10-10-10-10-10-12--12-12-12-12-12-12-15--15-15-15-15-15-15-14\-|
E|-----------------------------------------------------------------------|

Guitars 1+2
e|-------------------------------------------------------------|
B|-------------------------------------------------------------|
G|-------------------------------------------------------------|
D|-------------------------------2--2-2-2-2-2-2-5--5-5-5-5-5-5-|
A|-2--2-2-2-2-2-2-5--5-5-5-5-5-5-0--0-0-0-0-0-0-3--3-3-3-3-3-3-|
E|-0--0-0-0-0-0-0-3--3-3-3-3-3-3-------------------------------|

Guitar 1
e|------------------------------------------------------------------|
B|------------------------------------------------------------------|
G|------------------------------------------------------------------|
D|------------------------------------------------------------------|
A|-7--7-7-7-7-7-7-10--10-10-10-10-10-10-12--12-12-12-12-12-12-15----|
E|------------------------------------------------------------------|
Guitar 2
e|------------------------------------------------------------------|
B|------------------------------------------------------------------|
G|------------------------------------------------------------------|
D|-9--9-9-9-9-9-9-12--12-12-12-12-12-12-14--14-14-14-14-14-14-17----|
A|-7--7-7-7-7-7-7-10--10-10-10-10-10-10-12--12-12-12-12-12-12-15----|
E|------------------------------------------------------------------|


| /  slide up
| \  slide down
| h  hammer-on
| p  pull-off
| ~  vibrato
| +  harmonic
| x  Mute note
===============================================================================
comments
We did not receive enough feedback on this tab! Please rate:
print report bad tab
1 2 3 4 5
I want to post or [tab]
guest
You may want to rate the tab now too:
select rating
Please do not post tabs as comments. Select "correction" instead!