Oops, an error
Loading. Please wait.

Woke Up Screaming Bass Tab

242 views 3 this week
no commentswrite comment
1 2 3 4 5
please rate
add to favorites
launch autoscroll
font size
0
reset
guitar tuner
Tab Pro tools
  • play this tab
  • loop segment
  • change instrument
  • show fretboard
  • metronome
×
Best way to learn
"Woke Up Screaming"
Autoscroll
slow
fast
+/-
esc
set tempo
stop
Contributor
Intro
G-------------------------------|-------------------------------|
D-------------------------------|-------------------------------|
A-------------------------------|-------------------------------|
E-3--------------0--------------|-3--------------0--------------|

G-------------------------------|-------------------------------|
D-------------------------------|-------------------------------|
A-------------------------------|-------------------------------|
E-3--------------0--------------|-3--------------0--------------|

G-------------------------------|-------------------------------|
D-----------------------2-0-----|-------------------------------|
A---------------------------2-0-|-------------------------------|
E-3--3-3-3-3-3-3-0--0-0---------|-3--3-3-3-3-3-3-0--0-0-0-0-0-0-|

Verse
G-------------------------------|-------------------------------|
D-------------------------------|-------------------------------|
A-------------------------------|-------------------------------|
E-3--3-3-3-3-3-3-0--0-0-0-0-0-0-|-3--3-3-3-3-3-3-0--0-0-0-0-0-0-|

G-------------------------------|-------------------------------|
D-------------------------------|-------------------------------|
A-------------------------------|-------------------------------|
E-3--3-3-3-3-3-3-0--0-0-0-0-0-0-|-3--3-3-3-3-3-3-0--0-0-0-0-0-0-|

G------------------------|------------------------|
D------------------------|------------------------|
A-3--3-3-3-3-0-0-0-0-0-0-|-3--3-3-3-3-5-5-5-5-5-5-|
E------------------------|------------------------|

Chorus 
G------------------------------------------|
D------------------------------------------|
A-3-3-3-3---------3-3-3-3------3-3-3-3-5-5-|
E----------3-3-3----------3-3-3------------|

Outro
G-----------------|-----------------|-----------------|-----------------|
D-----------------|-----------------|-----------------|-----------------|
A-----------------|-----------------|-----------------|-----------------|
E-3-------0-------|-3-------0-------|-3-3-3-3-0-0-0-0-|-3-3-3-3-0-0-0-0-|

G-----------------|-----------------|-----------------|-----------------|
D-----------------|-----------------|-----------------|-----------------|
A-----------------|-----------------|-----------------|-----------------|
E-3-3-3-3-0-0-0-0-|-3-3-3-3-0-0-0-0-|-3-3-3-3-0-0-0-0-|-3-3-3-3-0-0-0-0-|

****************************************************************************
Simple to follow, matches up with the guitar tab


comments
We did not receive enough feedback on this tab! Please rate:
print report bad tab
1 2 3 4 5
I want to post or [tab]
guest
You may want to rate the tab now too:
select rating
Please do not post tabs as comments. Select "correction" instead!