Oops, an error
Loading. Please wait.

From The Blind Tab

version 1
version 1

Solo

Whole song

Interactive

608 views 1 this week
no commentswrite comment
1 2 3 4 5
please rate
add to favorites
launch autoscroll
font size
0
reset
how to read this tab
guitar tuner
Autoscroll
slow
fast
+/-
esc
set tempo
stop
Help us to improve Ultimate-Guitar.com Take our survey!
×
Author
Difficulty
Tuning
advanced
C G C F A D
-------------------------------------------------------------------------------
                             From The Blind (Solo) - Daath
-------------------------------------------------------------------------------
Tabbed by: Blokey

Tuning: CGCFAD
All chord/scale shapes are noted in standard tuning (not drop C)

|--------------------------------|
|--------------------------------|
|--------------------------------|
|---12p8/7h8p7/6h7p6-----8h11-12-|
|--------------------5h7---------|
|--------------------------------|


|--------------------------------------|
|-------------------9----9----8---8----|
|----------10----10---10--------9------|
|-12-11-12-----------------------------|
|--------------------------------------|
|--------------------------------------|

|-------------10-------------------13-12-11-10-|
|-------------------9----9----9----------------|
|----------10----10---12---13---12-------------|
|-12-11-12-------------------------------------|
|----------------------------------------------|
|----------------------------------------------|

|-------------13-------------------------|
|-------------------12----12---11----11--|
|----------13----13----13---------12-----|
|12-11-12--------------------------------|
|----------------------------------------|
|----------------------------------------|

|-------------13-----------------------16-15-14-13--|
|-------------------12----12----12------------------|
|----------13----13----15----13----15---------------|
|-12-11-12------------------------------------------|
|---------------------------------------------------|
|---------------------------------------------------|


|-12---12-12------12---12-12----12-11-10-9-10-11-12--12-12--|
|-11---11-11------11---11-11-------------------------11-11--|
|-12---12-12------12---12-12-------------------------12-12--|
|-12---12-12------12---12-12-------------------------12-12--|
|-----------------------------------------------------------|
|-----------------------------------------------------------|

|-17-13--------------------------------|
|-------15-----------------------------|
|----------14-13-14-10-9-10-7-6-7-6-7--|
|--------------------------------------|
|--------------------------------------|
|--------------------------------------|


Am      Bdim      Dharm min scale
|----------------------------------|
|----------------------------------|
|-7--------------------------------|
|---7-----8-5-----7----------------|
|-----8-5-----7-4---8-7-5-7-5-4-5--|
|----------------------------------|


Riff bit
|---------------------------------|
|---------------------------------|
|-7~---6--3~-----7--9--7--6~------|
|---------------------------------|
|-5~---4--1~-----5--7--5--4~------|
|---------------------------------|


pinch harm
|------------10-13-10-----------10-9-10-9---------------------------------------------|
|-13+---10-11----------11-10-11------------11-10-8------------------------------------|
|--------------------------------------------------10-9-8-7-8-9-10-7---------7-6-7-6--|
|--------------------------------------------------------------------8-7-8-7----------|
|-------------------------------------------------------------------------------------|
|-------------------------------------------------------------------------------------|

|--------------------------------------|
|--------------------------------------|
|--------------------------------------|
|-8-7---6b-----------------------------|
|-----8----8-5-0-4+--------------------|
|--------------------------------------|

Riff bit
|---------------------------------|
|---------------------------------|
|-7~---6--3~-----7--9--7--6~------|
|---------------------------------|
|-5~---4--1~-----5--7--5--4~------|
|---------------------------------|

Careful... It comes in on the offbeat
|--------------------------------------------10-12-10----------|
|-----------------------------------8-10-11-----------11-10-11-| cont.
|-------7-9-7----10-7----------9-10----------------------------|
|-6-7-8-------8-------8-7-8-10---------------------------------|
|--------------------------------------------------------------|
|--------------------------------------------------------------|

Amin                 A# maj          D min      
|-13\12-9--------------------------10-13-12-10----------10-4b-|
|---------10-------------------11-------------11-10-11--------|
|-------------9--------------10-------------------------------|
|----------------10-------12----------------------------------|
|-------------------12-13-------------------------------------|
|-------------------------------------------------------------|
Suggest correction
What's this?
You can suggest a correction to this tab. Community and Mods will review your correction and vote to approve or reject it.
comments
We did not receive enough feedback on this tab! Please rate:
print report bad tab
1 2 3 4 5
guest
You may want to rate the tab now too:
select rating
Please do not post tabs as comments. Select "correction" instead!