Oops, an error
Loading. Please wait.

Aerodynamic Tab

version 1
26,735 views 102 this week
4 commentsread comments
1 2 3 4 5
x 11
add to favorites
launch autoscroll
font size
0
reset
how to read this tab
guitar tuner
×
Best way to learn
"Aerodynamic"
Autoscroll
slow
fast
+/-
esc
set tempo
stop
Author
Tuning
  follow
E A D G B E
Title: Aerodynamic
Artist: Daft Punk
Transcribed by: Lefi

Good sound on a Mac with Amplitube (preset Heavy 1 with
more Gate, a little bit more depth in Chorus and autowah for fun)

Solo :(with your fingers !!!)

e|-------------------------------------------------|
B|-3----0----3----0------3-----0-----3-----0-------|
G|--------------------------1-----1-----1-----1----|
D|---4----4----4----4------------------------------|
A|-------------------------------------------------|
E|-------------------------------------------------|

e|-3----0----3----0--------------------------------|
B|------------------------5----2-----5-----2-------|
G|---4----4----4----4-------2-----2-----2-----2----|
D|-------------------------------------------------|
A|-------------------------------------------------|
E|-------------------------------------------------|


try this one (First Part - Can´t figure out second part because I´ve killed my string :( )
let your finger on the fourth, sixth and seventh fret. It is just like tapping.

e|-------------------------------------------------|
B|-------------------------------------------------|
G|-------------------------------------------------|
D|---12hp---4---9hp---12hp---4---9hp---------------| 2X
A|-------------------------------------------------|
E|-------------------------------------------------|

e|-------------------------------------------------|
B|-------------------------------------------------|
G|-------------------------------------------------|
D|---12hp---6---9hp---12hp---6---9hp---------------| 2X
A|-------------------------------------------------|
E|-------------------------------------------------|

e|-------------------------------------------------|
B|-------------------------------------------------|
G|---12hp---4---9hp---12hp---4---9hp---------------|
D|-------------------------------------------------| 2X
A|-------------------------------------------------|
E|-------------------------------------------------|

e|-------------------------------------------------|
B|-------------------------------------------------|
G|-------------------------------------------------|
D|---14hp---7---11hp---14hp---7---11hp-------------| 2X
A|-------------------------------------------------|
E|-------------------------------------------------|

h = Hammer on
p = pull off
Suggest correction
comments
print report bad tab
4 comments total. Showing first comments.
0 reply
Abnormal_Omish 50 Mar 16, 2006 07:46 AM

this tab is great dude. Ive been looking everywhere for it. Thanks

0 reply
OttovanZanten 92 Sep 26, 2006 12:44 PM

hm.. shoodn't it be tapped?

0 reply
TK1 228 May 01, 2007 10:31 AM

it shouldnt be tapped, or rather, doesnt have to be. im glad i found this tab tho, cause halfway thru the song if you listen really carefully the solo drops down an octave to this here.

guest
You may want to rate the tab now too:
select rating
Wanna post a correction for this tab? Suggest correction