Oops, an error
Loading. Please wait.

Around The World bass

version 3
version 3

Whole song

Interactive

123,754 views 186 this week
15 commentsread comments
1 2 3 4 5
x 68
add to favorites
×
Save as Personal and add changes to this tab that will be seen only by you. Learn more ›
×
You can save this tab as Personal to edit and correct it or add notes. All changes will be seen only by you. Learn more »
launch autoscroll
font size
0
reset
guitar tuner
edit
Autoscroll
slow
fast
+/-
esc
set tempo
stop
Author
Artist: Daft Punk
Song  : Around The World
Album : Home Work
Bassit: It's a computer
Tuning: GDAE (standerd)
Timing: 4/4
Tabbed: Simon Skipper

This song is pretty funky to play and I don't think its that hard.
The key to this song is to get tight with the drums!


[Intro]

G|---------------------------|
D|--2-4--2-------------------|
A|----------5--3--2----------|
E|-------------------5--3----|


[Verse] (00:31)

G|-------------------------------------------------------------------|
D|------------------------------2--2--2--2--2-4--2-------------------|
A|--------------2-3--3--3--3--5---------------------5--3--2----------|
E|--5--5--5--5-----------------------------------------------5--3----|


[Chorus Bit] (1:58)

This is really fun to play                     (below: thats all in 1 slide)
G|----7-9--7-x-7-x-7h9--------------------------------|
D|-------------------------10-----10---10---9--7/9/5--|
A|--7-------------------------------------------------|
E|----------------------8------8-----8----7-----------|


*************************************

h  -  Hammer-on
/  -  Slide (up or down)
x  -  Dead note/ghost note

*************************************

THE END!

any probs?
E-mail 
play_field@hotmail.com

            
            
Suggest correction
Creating personal tab
Creating personal tab
You can edit any tab online and save it as your Personal.

You can edit, replace or remove any tab part or add personal notes – all changes will be seen only by you.

Personal tabs can be accessed anytime from any device, even offline.
Learn more »
comments
print report bad tab
15 comments total. Showing first comments.
0 reply
maartenislang 51 Aug 23, 2007 03:04 AM

you could play
G|----7-9--7-x-7-x-7h9--------------------------------|
D|-------------------------10-----10---10---9--7/9/5--|
A|--7-------------------------------------------------|
E|----------------------8------8-----8----7-----------|
like
G|----7-9--7-x-7-x-7h9--------------------------|
D|-------------------------10-----10----7h9-----|
A|--7----------------------------------------10-|
E|----------------------8------8-----7----------|
I'm not really that sure bout that hammer on but my point is (being lazy); playing A10 instead of D5

+2 reply
shreddyz11 10 Sep 01, 2007 08:02 AM

no, the slide sounds better

good job

+1 reply
Jasper7979 51 Sep 24, 2007 09:48 AM

Five Stars , Nice To Read and Fun 2 Play. THANX!

guest
You may want to rate the tab now too:
select rating
Wanna post a correction for this tab? Suggest correction