Oops, an error
Loading. Please wait.

Beyond Tab

version 1
version 1

Whole song

Interactive

9,973 views 18 this week
8 commentsread comments
1 2 3 4 5
accurate
x 3
add to favorites
launch autoscroll
font size
0
reset
how to read this tab
guitar tuner
Autoscroll
slow
fast
+/-
esc
set tempo
stop
Help us to improve Ultimate-Guitar.com Take our survey!
×
Author
Difficulty
Hope you like RAM!

This is the little intro that start at 0:43
E-------------------|
B-------------------|
G-------------------|
D-9-8---6--6--6-----|
A---------9--9------|
E-------------------|

Play Abm, E, Dbm and B normal as 4/4 and then F# quickly and repeat for all the song

These are the chords:

              Abm              E               Dbm                B               F#
       E-----4----|----0-----|----4-----|----2-----|----2-----|
       B-----4----|----0-----|----5-----|----4-----|----2-----|
       G-----4----|----1-----|----6-----|----4-----|----3-----|
       D-----6----|----2-----|----6-----|----4-----|----4-----|
       A-----6----|----2-----|----4-----|----2-----|----4-----|
       E-----4----|----0-----|----4-----|----2-----|----2-----|

I think B it's not really correct, if you have some suggest write it in the comments
Suggest correction
Give kudos to tab author, rate the tab!
1 2 3 4 5
comments
print report bad tab
8 comments total. Showing first comments.
0 reply
Mongrel_Sharpe 10 wrote on May 21 2013, 12:16 pm

During the repeats of the little riff in the background.

They switch it up to this

E-------------------|
B-------------------|
G-------------------|
D-11-9---6--6--6----|
A---------9--9------|
E-------------------|

0 reply
Mongrel_Sharpe 10 wrote on May 21 2013, 12:16 pm

During the little back ground bit. They play this every few times

E-------------------|
B-------------------|
G-------------------|
D-11-9---6--6--6----|
A---------9--9------|
E-------------------|

0 reply
Mongrel_Sharpe 10 wrote on May 26 2013, 09:23 pm

Sorry for the double post. It won't let me delete one. :(

guest
You may want to rate the tab now too:
select rating
Wanna post a correction for this tab? Suggest correction