Oops, an error
Loading. Please wait.

Da Funk tab

version 2
version 2

Whole song

Interactive

13,847 views 18 this week
1 commentread comment
1 2 3 4 5
x 4
add to favorites
×
Save as Personal and add changes to this tab that will be seen only by you. Learn more ›
×
You can save this tab as Personal to edit and correct it or add notes. All changes will be seen only by you. Learn more »
launch autoscroll
font size
0
reset
how to read this tab
guitar tuner
edit
Autoscroll
slow
fast
+/-
esc
set tempo
stop
Difficulty
Tabbed by Vince L.

I think this would sound best if you had a talk box or something like that... a decent 
would suffice really.

Guitar 1  (Rhythm)

Dm7        Dm7        Dm7        Dm7... see a pattern emerging?

Guitar 2
(Theme)

E|-----------------------------------------------------------|
B|-----------------------------------------------------------|
G|o------------15-------------------------------------------o|
D|o-17~--15-17----------------15----------------------------o|
A|----------------17~---15-17---------------17---------------|
E|-------------------------------18---17-18----15~---17-18---|

(Breakdown) Works best with heavy fuzz and a wah

E|-------------------------------|
B|-------------------------------|
G|o-----------------------------o|
D|o---17~-------------15h17-----o|
A|---------17------18------------|
E|--15--15-----15-----------15~--|

Those two parts should cover you for the whole song.

Cheers!

            
            
Suggest correction
Creating personal tab
Creating personal tab
You can edit any tab online and save it as your Personal.

You can edit, replace or remove any tab part or add personal notes – all changes will be seen only by you.

Personal tabs can be accessed anytime from any device, even offline.
Learn more »
comments
print report bad tab
1 comment total.
0 reply
Angel aka alaab 10 Aug 28, 2009 08:24 PM

sounds spot on, except it sounds better if you add E|-------------------------------|
B|-------------------------------|
G|o-----------------------------o|
D|o--1717-------------15h17-----o|
A|---------17------18------17-----|
E|--15---15-----15-----------15~--|
or atleast i think it sounds better, but i wouldn't have figured it out if you didn't post this to begin with so THX ;D

guest
Wanna post a correction for this tab? Suggest correction