Oops, an error
Loading. Please wait.

Derezzed Tab

version 2
version 2

Whole song

Interactive

31,364 views 6 this week
5 commentsread comments
1 2 3 4 5
x 6
add to favorites
launch autoscroll
font size
0
reset
how to read this tab
guitar tuner
×
Best way to learn
"Derezzed"
Autoscroll
slow
fast
+/-
esc
set tempo
stop
The majority of this tab is done with finger tapping

Tuning is in drop C

If you see my cover of this you'll notice I tie a sock around the 6th fret, this is to 
prevent string buzz and is vital for playing this song.

http://www.youtube.com/watch?
v=BN9mq5jZwGs&lc=VaRGA6HBxuJPW7yA9cLFjSEGXGUjjxdcyhxLhKJphpg&feature=inbox

RH-I = Right Hand Index Finger
RH-M = Right Hand Middle Finger
LH-M = Left Hand Middle Finger
/ = slide

Main Melody

-------------(LH-M)13-----------------------------------------------------|
--------------------------------------------------------------------------|
----------------(RH-M)17-(LH-M)13-------------------(LH-M)13-(RH-M)17-----|
---------(RH-M)15-----------------------(LH-M)13-(RH-M)15-----------------|
-(LH-I)8/11------------------(RH-M)18-(LH-I)13----------------------------|
--------------------------------------------------------------------------|


Part from 1:12 to 1:28

--------------------------------------------------------------|
--------------------------------------------------------------|
-10--13/10/13/10/13-----------10-13/10-13-10--1313131313/17---|
---------------------15(SD)-----------------------------------|         (x3)
--8--11/8 /11/8 /11--15(SD)---8--11/8--11--8--1111111111/15---|
---------------------15(SD)-----------------------------------|



-------------(LH-M)13----------------------------------------------|
-------------------------------------------------------------------|
----------------(RH-M)17-(LH-M)13------------------------(LH-M)13--|
---------(RH-M)15---------------------------(LH-M)13-(RH-M)15------|
-(LH-I)8--/11-----------------(RH-M)18-(LH-I)13--------------------|
-------------------------------------------------------------------|



------------------------------------------------|
------------------------------------------------|
-(RH-M)17-(LH-M)13------------------------------|
-----------------------------(LH-M)13(RH-M)15---|
---------------(RH-M)18-(LH-I)13----------------|
------------------------------------------------|



------------------------------------------------------|
------------------------------------------------------|
-(RH-M)17-(LH-M)13------------------(LH-M)13-(RH-M)17-|
------------------------(LH-M)13-(RH-M)15-------------|
------------(RH-M)18-(LH-I)13-------------------------|
------------------------------------------------------|
Suggest correction
comments
print report bad tab
5 comments total. Showing first comments.
+1 reply
hildesaw 141 May 11, 2011 06:38 AM

I must applaud you on your fantastic cover!

+1 reply
redgend 244 Jul 09, 2011 12:30 PM

Your main melody is the same as doing this...

-----------13-------------------------|
--------------13-------------------13-|
-----------------13-------------13----|
-------15-----------13----13-15-------|
-8/11------------------13-------------|
--------------------------------------|

How much easier is that?

-2 reply
CpnIndigoSkyler 60 Jul 25, 2011 06:07 AM

i wasn't looking for the easiest way to do it, i was trying to make it sound closer to a techno sound dude

guest
You may want to rate the tab now too:
select rating
Wanna post a correction for this tab? Suggest correction