Oops, an error
Loading. Please wait.

Derezzed Tab

version 4
version 4

Whole song

Interactive

971 views 1 this week
6 commentsread comments
1 2 3 4 5
2 more votes to show rating
add to favorites
launch autoscroll
font size
0
reset
how to read this tab
guitar tuner
Autoscroll
slow
fast
+/-
esc
set tempo
stop
Difficulty
Tuning
intermediate
D# G# C# F# A# D#
Since I was writing it down anyways, I thought I'd post the tabs.

Everything I've got so far from watching this guy:
https://www.youtube.com/watch?v=PfceGkSZFP8
(NOT ME! He "only" has a tutorial, which isn't finished sadly)

Tuning is Half step down:


Part 1                            4x
------------------0---------------------|
----------------------------------------|
------------------4p0------0h4----------|
-2-------5˜˜˜------------0h2------------|
--------------------5p0-----------------|
---0------------------------------------|

Then                              1x
----------------------------------------|
-----------------17---------------------|
------------------16p0------0h16--------|
-2-------5˜˜˜-------------0h14----------|
--------------------17p0----------------|
---0------------------------------------|

Part 2                           10x
----------------------------------------|
-----------------17---------------------|
------------------16p0------0h16--------|
-14-----17˜˜˜-------------0h14----------|
--------------------17p0----------------|
---0------------------------------------|

Part 1                            4x
------------------0---------------------|
----------------------------------------|
------------------4p0------0h4----------|
-2-------5˜˜˜------------0h2------------|
--------------------5p0-----------------|
---0------------------------------------|

Part3 (don't know about the few notes in between, too fast to see, but its just some sliding I guess) 1x
------------------------------------|
------------------------------------|
------------------------------------|
------------------------------------|
------7---7---7---7---7-------------|
-----0---0---0---0---0--------------|

Part 1                            1x
------------------0---------------------|
----------------------------------------|
------------------4p0------0h4----------|
-2-------5˜˜˜------------0h2------------|
--------------------5p0-----------------|
---0------------------------------------|

Then again                        1x
----------------------------------------|
-----------------17---------------------|
------------------16p0------0h16--------|
-2-------5˜˜˜-------------0h14----------|
--------------------17p0----------------|
---0------------------------------------|

Part 2                            2x
----------------------------------------|
-----------------17---------------------|
------------------16p0------0h16--------|
-14-----17˜˜˜-------------0h14----------|
--------------------17p0----------------|
---0------------------------------------|


Then some insane sh** his tutorial is missing (well he did play it in fact, but didn't 
say a word about it,
just: "ah fu** it I'm doing it next time"...haven't seen part 2 yet. anybody?)

Hope you enjoy! Please correct me if I'm wrong! Sadly I have no idea how on earth I 
could get that insane
sound.

Photonenbert
Suggest correction
Give kudos to tab author, rate the tab!
1 2 3 4 5
comments
print report bad tab
6 comments total. Showing first comments.
0 reply
JavarisJamar 26 Aug 09, 2014 05:46 PM, edited on August 11 2014, 11:52 pm

Thanks for the fantastic tab!! After a ton of pausing and guess-work, I think I've figured out something kinda close to the insane middle part based on the video. I know it's not all right, but it's a start.Stave 1: pm---------Eb|-12-12-12-12-----------15-x-------12-12-12-12-------------------------Bb|-12-12-12-12-----------15-x-15\---12-12-12-12-------------------------Gb|-12-12-12-12-12-x-12-x------16\---12-12-12-12-12-x-12-x-12------------Db|-------------12-x-12-x------17\---------------12-x-12-x-12------------Ab|-------------10-x-10-x------------------------10-x-10-x-10-10-10-10-10Eb|----------------------------------------------------------------------Stave 2:Eb|------------------17---------------------------0-----------------Bb|---------17-18-20----17------------------------------------------Gb|-------------------------------------------------4p0---------0h4-Db|---------------------------------------------------------0h2-----Ab|7---10~--------------------------7-----7-----7-------5p0---------Eb|-0----------------------10-9-8-7---0-0---0-0---------------------Stave 3:Eb|--------------------------------------Bb|---------------17---------------------Gb|------------------16p0-----------0h14-Db|----------------------------0h16------Ab|-7-----7-----7---------17p0-----------Eb|---0-0---0-0--------------------------and then for the glitchy fart just tremolo pick the 5 fret on the Db string!

0 reply
JavarisJamar 26 Aug 09, 2014 05:47 PM

*glitchy PART my bad haha

0 reply
JavarisJamar 26 Aug 09, 2014 05:47 PM

and the palm mute should be over the four 10 frets in a row at the end of the first line

guest
You may want to rate the tab now too:
select rating
Wanna post a correction for this tab? Suggest correction