Oops, an error
Loading. Please wait.

End Of Line bass

version 1
version 1

Whole song

Interactive

1,887 views 1 this week
1 commentread comment
1 2 3 4 5
x 4
add to favorites
×
Save as Personal and add changes to this tab that will be seen only by you. Learn more ›
×
You can save this tab as Personal to edit and correct it or add notes. All changes will be seen only by you. Learn more »
launch autoscroll
font size
0
reset
guitar tuner
edit
Autoscroll
slow
fast
+/-
esc
set tempo
stop
Author
Difficulty
Played throughout entire song >
G|------------------------------------------------------------|
D|------------------------------------------------------------|
A|-7-7-7-7-7-0-0-3-3-3----------------------------------------|
E|------------------------------------------------------------|


Main "Lead" part > (play as needed)
G|-----2------------------------------------------------------|
D|-0-2------0-------------------------------------------------|
A|-------0----3-----------------------------------------------|
E|---------------1--------------------------------------------|

Great tune that i thought id tab for bass because it works so well and i'd only seen 
guitar parts. Try playing with effects if youve got em' such as synth for extra 
awesomeness. Timing is quite easy to figure out... ENJOY!

            
            
Suggest correction
Creating personal tab
Creating personal tab
You can edit any tab online and save it as your Personal.

You can edit, replace or remove any tab part or add personal notes – all changes will be seen only by you.

Personal tabs can be accessed anytime from any device, even offline.
Learn more »
comments
print report bad tab
1 comment total.
0 reply
nosbled 10 Feb 09, 2014 06:09 AM

I think this sounds better. The lead part looks correct though.

Played throughout entire song >
G|------------------------------------------------------------|
D|---------------0-0-0-0--------------------------------------|
A|-0-0-0-0-0-0-0----------------------------------------------|
E|-----------------------1-1-1-1------------------------------|

guest
You may want to rate the tab now too:
select rating
Wanna post a correction for this tab? Suggest correction