Oops, an error
Loading. Please wait.

End Of Line Tab

version 2
version 2

Whole song

Interactive

2,235 views 6 this week
1 commentread comment
1 2 3 4 5
x 4
add to favorites
×
Save as Personal and add changes to this tab that will be seen only by you. Learn more ›
×
You can save this tab as Personal to edit and correct it or add notes. All changes will be seen only by you. Learn more »
save as personal
new!
launch autoscroll
font size
0
reset
how to read this tab
guitar tuner
Autoscroll
slow
fast
+/-
esc
set tempo
stop
Difficulty
novice
E-------------]
B-10-10-10-10-]    <-----Played repeatedly throughout the song
G-------------]
D-------------]
A-------------]
E-------------]

E----------------]
B----------------]            Listen to the song for the strumming pattern
G----------------]
D-7-7-7-7-0-0-3-3]
A----------------]
E----------------]

E-----------------]                  E-----5-----------]
B-----------------]                  B-3-5-------3-1---]
G-----2-----------]                  G-------2---------]
D-0-2-------0-----]          OR      D---------------3-]
A-------0-----3---]                  A-----------------]
E---------------1-]                  E-----------------]
Suggest correction
comments
print report bad tab
1 comment total.
0 reply
parrott26 10 Aug 25, 2014 04:10 PM

I think it would sound better if you switched between these two tabs

E-----------------] E-----------------]
B-----------------] B-----------------]
G-----2-----------] G-----2-----------]
D-0-2-------0-----] D-0-2-------0--3--]
A-------0----3----] A-------0----3----]
E--------------1--] E-----------------]

guest
Wanna post a correction for this tab? Suggest correction