Oops, an error
Loading. Please wait.

End Of Line tab

version 3
version 3

Whole song

Interactive

412 views 1 this week
1 commentread comment
1 2 3 4 5
x 3
add to favorites
×
Save as Personal and add changes to this tab that will be seen only by you. Learn more ›
×
You can save this tab as Personal to edit and correct it or add notes. All changes will be seen only by you. Learn more »
launch autoscroll
font size
0
reset
how to read this tab
guitar tuner
edit
Autoscroll
slow
fast
+/-
esc
set tempo
stop
Author
This song comes from the TRON: Legacy soundtrack, made by Daft Punk

Tab by Microcutted

I've made this tab all by ear without slowing anything down but it sounds like it
is all correct throughout. Have fun!

Bass line
  E.  E.  E.  E.  E  S S    E.  E.  E.  E.  E.  S    E.  E.  E.  E.  E  S S
-------------------------|------------------------|-------------------------|
-------------------------|------------------------|-------------------------|
-------------------------|------------------------|-------------------------|
-------------------------|------------------------|-------------------------|
-------------------------|------------------------|-------------------------|
--7---7---7---7---7--0-0-|--0---0---3---3---3---L-|--7---7---7---7---7--0-0-|


  E.  E.  E.  E.  E.  S    E.  E.  E.  E.  E  S S    E.  E.  E.  E.  E.  S
------------------------|-------------------------|------------------------|
------------------------|-------------------------|------------------------|
------------------------|-------------------------|------------------------|
------------------------|-------------------------|------------------------|
------------------------|-------------------------|------------------------|
--0---0---3---3---3---L-|--7---7---7---7---7--0-0-|--0---0---3---3---3---L-|


  E.  E.  E.  E.  E  S S    E.  E.  E.  E.  E.  S    E.  E.  E.  E.  E  S S
-------------------------|------------------------|-------------------------|
-------------------------|------------------------|-------------------------|
-------------------------|------------------------|-------------------------|
-------------------------|------------------------|-------------------------|
-------------------------|------------------------|-------------------------|
--7---7---7---7---7--0-0-|--0---0---3---3---3---L-|--7---7---7---7---7--0-0-|


  E.  E.  E.  E.  E.  S    E.  E.  E.  E.  E  S S    E.  E.  E.  E.  E.  S
------------------------|-------------------------|------------------------|
------------------------|-------------------------|------------------------|
------------------------|-------------------------|------------------------|
------------------------|-------------------------|------------------------|
------------------------|-------------------------|------------------------|
--0---0---3---3---3---L-|--7---7---7---7---7--0-0-|--0---0---3---3---3---L-|


  E.  E.  E.  E.  E  S S    E.  E.  E.  E.  E.  S    E.  E.  E.  E.  E  S S
-------------------------|------------------------|-------------------------|
-------------------------|------------------------|-------------------------|
-------------------------|------------------------|-------------------------|
-------------------------|------------------------|-------------------------|
-------------------------|------------------------|-------------------------|
--7---7---7---7---7--0-0-|--0---0---3---3---3---L-|--7---7---7---7---7--0-0-|


  E.  E.  E.  E.  E.  S
------------------------||
------------------------||
------------------------||
------------------------||
------------------------||
--0---0---3---3---3---L-||

Repeat this throughout the whole song!



First melody line
  E  E  E  Q.     Q       E   Q.     Q.     E     E  E  E  Q.     Q
-----------------------|-----------------------|-----------------------|
-----------------------|-----------------------|-----------------------|
-----------------------|-----------------------|-----------------------|
--------7--------------|-----------------------|--------7--------------|
--5--7------------5----|--L---3----------------|--5--7------------5----|
-----------7-----------|-------------3------L--|-----------7-----------|


  E   Q.     Q.     E     E  E  E  Q.     Q       E   Q.     Q.     E
-----------------------|-----------------------|-----------------------|
-----------------------|-----------------------|-----------------------|
-----------------------|-----------------------|-----------------------|
-----------------------|--------7--------------|-----------------------|
--L---3----------------|--5--7------------5----|--L---3----------------|
-------------3------L--|-----------7-----------|-------------3------L--|


  E  E  E  Q.     Q       E   Q.     Q.     E
-----------------------|-----------------------||
-----------------------|-----------------------||
-----------------------|-----------------------||
--------7--------------|-----------------------||
--5--7------------5----|--L---3----------------||
-----------7-----------|-------------3------L--||


When the first lead melody has been played 2 times the same melody is played over this 
one octave above this.

  E  E   E  Q.     Q       E   Q.     Q.     E
------------------------|-----------------------|
--------10--------------|-----------------------|
--7--9-------------7----|--L--------------------|
------------7-----------|-----10----------------|
------------------------|-------------8------L--|
------------------------|-----------------------|


  E  E   E  Q.     Q       E   Q.     Q.     E
------------------------|-----------------------||
--------10--------------|-----------------------||
--7--9-------------7----|--L--------------------||
------------7-----------|-----10----------------||
------------------------|-------------8------L--||
------------------------|-----------------------||

It is very easy to predict when the different parts are gonna be played so you can 
probably play it after 3 times hearing it.


Duration Legend
---------------
W - whole
H - half
Q - quarter
E - 8th
S - 16th
T - 32nd
X - 64th
. - note dotted
|-n-|  - n-tuplets


Tablature Legend
----------------
L - tied note
x - dead note
g - grace note
(n) - ghost note
> - accentuded note
NH - natural harmonic
AH - artificial harmonic
TH - tapped harmonic
SH - semi harmonic
PH - pitch harmonic
h - hammer on
p - pull off
b - bend
br - bendRelease
pb - preBend
pbr - preBendRelease
brb - bendReleaseBend
\n/ - tremolo bar dip
\n - tremolo bar dive
-/n - tremolo bar Release up
/n\ - tremolo bar inverted dip
/n - tremolo bar return
-\n - tremolo bar Release down
S - shift slide
s - legato slide
/ -  slide into from below or out of upwards
\ -  slide into from above or out of downwards
~ - vibrato
W - wide vibrato
tr - trill
TP - tremolo picking
T - tapping
S - slap
P - pop
< - fade in
^ - brush up
v - brush down

            
            
Suggest correction
Creating personal tab
Creating personal tab
You can edit any tab online and save it as your Personal.

You can edit, replace or remove any tab part or add personal notes – all changes will be seen only by you.

Personal tabs can be accessed anytime from any device, even offline.
Learn more »
Give kudos to tab author, rate the tab!
1 2 3 4 5
comments
print report bad tab
1 comment total.
0 reply
miles136 13 Apr 29, 2016 10:44 AM

Like the intro

try this for rest?

e|----------------------|
B|----------------------|
G|----------------------|
D|--------7-------------|
A|---5--7------3-2------|
E|----------5------0----|

guest
You may want to rate the tab now too:
select rating
Wanna post a correction for this tab? Suggest correction