Oops, an error
Loading. Please wait.

Get Lucky Bass Tab

version 1
version 1

Whole song

Interactive

227,946 views 252 this week
no commentswrite comment
1 2 3 4 5
x 63
add to favorites
launch autoscroll
font size
0
reset
guitar tuner
Autoscroll
slow
fast
+/-
esc
set tempo
stop
Help us to improve Ultimate-Guitar.com Take our survey!
×
Author
Difficulty
novice
-------------------------------------------------------------------------------
                             GET LUCKY - Daft Punk
-------------------------------------------------------------------------------
Tabbed by: Robotfrom94
E-mail: john.shannon1994@hotmail.com

Tuning: standard

I didn't bother tabbing any of the more complex fills, this is so you can make up your own.
the notation above the tab is to help you with timing. Each line is a semiquaver 
(16th-note) and the numbers
As far as I'm aware it is just this riff repeated over and over.

  1 + 2 + 3 + 4 + 1 + 2 + 3 + 4 + 1 + 2 + 3 + 4 + 1 + 2 + 3 + 4 +
G|----------------------------------------------------------------|
D|--------------4---------------7---------------------------------|
A|2---2---2-------5---5-----5-9-----------------4---------------2-|
E|--------------------------------2---2-----2-6---0---0-----0-4---|

  1 + 2 + 3 + 4 + 1 + 2 + 3 + 4 + 1 + 2 + 3 + 4 + 1 + 2 + 3 + 4 +
G|----------------------------------------------------------------|
D|--------------4---------------7---------------------------------|
A|2---2-----2-5---5---5-----5-9-----------------4---------------2-|
E|--------------------------------2---2-----2-6---0---0-----0-4---|
Suggest correction
comments
print report bad tab
guest
You may want to rate the tab now too:
select rating
Wanna post a correction for this tab? Suggest correction