Oops, an error
Loading. Please wait.
We have an official Get Lucky tab made by UG professional guitarists. Check out the tab »
×
80,517 views 84 this week
28 commentsread comments
1 2 3 4 5
x 18
add to favorites
×
Save as Personal and add changes to this tab that will be seen only by you. Learn more ›
×
You can save this tab as Personal to edit and correct it or add notes. All changes will be seen only by you. Learn more »
launch autoscroll
font size
0
reset
guitar tuner
backing track
0:00
0:00
edit
Autoscroll
slow
fast
+/-
esc
set tempo
stop
Author
Difficulty
intermediate
Disclaimer for those with thick skulls:
=====================================================================
This Tab is what is played during the song and is meant to be played 
along with the song. This Tab is NOT a solo arrangement.
=====================================================================
If you disagree with how this is played, feel free to make your own tab.

Enjoy 

G|-----------------------------------------------------------------|
D|-----------------------------------------------------------------|
A|-2-------2-----0-2-------2-------5-------5-----4-5-------5-------|
E|-----------------------------------------------------------------|
B|-----------------------------------------------------------------|
   1 e + a 2 e + a 3 e + a 4 e + a 1 e + a 2 e + a 3 e + a 4 e + a 

G|-----------------------------------------------------------------|
D|-4-------4-----4-----4-------4-0-2-------2-----2-------------2-2-|
A|-----------------------------------------------------------------|
E|-----------------------------------------------------------------|
B|-----------------------------------------------------------------|
   1 e + a 2 e + a 3 e + a 4 e + a 1 e + a 2 e + a 3 e + a 4 e + a 

G|-----------------------------------------------------------------|
D|-------------------------------------------------------------2---|
A|-2-------2-----2-------------2---5-------5---4-5-----5-----5-----|
E|-----------------------------------------------------------------|
B|-----------------------------------------------------------------|
   1 e + a 2 e + a 3 e + a 4 e + a 1 e + a 2 e + a 3 e + a 4 e + a 

G|-----------------------------------------------------------------|
D|-4---------------------------4-4---------------------------------|
A|---------------------------------------------------------0---4---|
E|---------2---2-2-----2-----------0-------0---0-0-----2-----------|
B|-----------------------------------------------------------------|
   1 e + a 2 e + a 3 e + a 4 e + a 1 e + a 2 e + a 3 e + a 4 e + a 


0:16
[Verse]

G|-----------------------------------------------------------------|
D|-----------------------------------------------------------------|
A|---------------0-2-----------------------------4-5---------------|
E|-----------------------------0-0-----------------------------0-0-|
B|-0-------0-----------0-----------3-------3-----------3-----------|
   1 e + a 2 e + a 3 e + a 4 e + a 1 e + a 2 e + a 3 e + a 4 e + a 

G|-----------------------------------------------------------------|
D|---------------4-------------------------------------2-----------|
A|-----------------------------------------------------------------|
E|-2-------2---2-------2-------2-0---------0-------0---------------|
B|-------------------------------------------------------------0---|
   1 e + a 2 e + a 3 e + a 4 e + a 1 e + a 2 e + a 3 e + a 4 e + a 

G|-----------------------------------------------------------------|
D|-----------------------------------------------------------------|
A|-----2---------2-------------------------------5-----------------|
E|-----------------------------------------------------------------|
B|-0-------0---0-------0---0-0-2---3-------3-----------3---3-3-5---|
   1 e + a 2 e + a 3 e + a 4 e + a 1 e + a 2 e + a 3 e + a 4 e + a 

G|-----------------------------------------------------------------|
D|---------------4-------------------------------2-----------------|
A|---------------------------------------------------------0-2-2---|
E|-2-------2-----------2-------0---0-------0-----------0-2---------|
B|-----------------------------------------------------------------|
   1 e + a 2 e + a 3 e + a 4 e + a 1 e + a 2 e + a 3 e + a 4 e + a 


0:32
[Pre Chorus]

G|-----------------------------------------------------------------|
D|-----------------------------------------------------------------|
A|---------------2-------------------------------5-----------------|
E|-------------------------------------------------------------0---|
B|-0-------0-----------0-------2-2-3-------3-----------3-----------|
   1 e + a 2 e + a 3 e + a 4 e + a 1 e + a 2 e + a 3 e + a 4 e + a 

G|-----------------------------------------------------------------|
D|---------------4-----------------------------------------7-9-7---|
A|-----------------------------------------------7-----9---------9-|
E|-2-------2-----------2-------0-0-0-------0-----------------------|
B|-----------------------------------------------------------------|
   1 e + a 2 e + a 3 e + a 4 e + a 1 e + a 2 e + a 3 e + a 4 e + a 

G|-----------------------------------------------------------------|
D|-----------------------------------------------------------------|
A|-----------------------------------------------5-----------------|
E|-7-------7-----7-------------------------------------------------|
B|-------------------0-0-------2-2-3-------3-----------3---3-3-5---|
   1 e + a 2 e + a 3 e + a 4 e + a 1 e + a 2 e + a 3 e + a 4 e + a 

G|-----------------------------------------------------------------|
D|-----4---------4-------------------------------------------------|
A|-------------------------------------7---------7-----7---7-------|
E|-2-------2---2-------2-------0---0-------0-------------9---9-7---|
B|-----------------------------------------------------------------|
   1 e + a 2 e + a 3 e + a 4 e + a 1 e + a 2 e + a 3 e + a 4 e + a 


0:49
[Chorus]

G|-----------------------------------------------------------------|
D|-----------------------------------------------------------------|
A|-----------------------------------------------------------------|
E|-----------------------------------------------------------------|
B|-0-------0-------0-0-0---0---2-2-3-------3-------3-3-3---3-------|
   1 e + a 2 e + a 3 e + a 4 e + a 1 e + a 2 e + a 3 e + a 4 e + a 

G|-----------------------------------------------------------------|
D|-------------------------------------------------2---2-----------|
A|-------------------------------------------------------------0-4-|
E|-2-------2-------2-2-2---2-----2-0-------0-----0---0-----0-------|
B|-----------------------------------------------------------------|
   1 e + a 2 e + a 3 e + a 4 e + a 1 e + a 2 e + a 3 e + a 4 e + a 

G|-----------------------------------------------------------------|
D|-----------------------------------------------------------------|
A|---------------0-2-------------------------------5---------------|
E|---------------------------------------------------------0---0-0-|
B|-0-------0---------0-0---0-------3-------3-----------3-----------|
   1 e + a 2 e + a 3 e + a 4 e + a 1 e + a 2 e + a 3 e + a 4 e + a 

G|-----------------------------------------------------------------|
D|---------------4-------4-----------------------------------------|
A|---------------------------------------------------------7-9-9---|
E|-2-------2-------------------2-2-0-------0-----7-9-7-9-7---------|
B|-----------------------------------------------------------------|
   1 e + a 2 e + a 3 e + a 4 e + a 1 e + a 2 e + a 3 e + a 4 e + a 


1:05
[Interlude]

G|-----------------------------------------------------------------|
D|-----------------------------------------------------------------|
A|-2-------2-----0-2-------2-------5-------5-----4-5-------5-------|
E|-----------------------------------------------------------------|
B|-----------------------------------------------------------------|
   1 e + a 2 e + a 3 e + a 4 e + a 1 e + a 2 e + a 3 e + a 4 e + a 

G|-----------------------------------------------------------------|
D|-4-------4-----4-----4-------4-4-2-------2-----2-------------2-2-|
A|-----------------------------------------------------------------|
E|-----------------------------------------------------------------|
B|-----------------------------------------------------------------|
   1 e + a 2 e + a 3 e + a 4 e + a 1 e + a 2 e + a 3 e + a 4 e + a 

G|-----------------------------------------------------------------|
D|-------------------------------------------------------------2---|
A|-2-------2-----2-------------2---5-------5---4-5-----5-----5-----|
E|-----------------------------------------------------------------|
B|-----------------------------------------------------------------|
   1 e + a 2 e + a 3 e + a 4 e + a 1 e + a 2 e + a 3 e + a 4 e + a 

G|-----------------------------------------------------------------|
D|-4---------------------------4-4---------------------------------|
A|---------------------------------------------------------0---4---|
E|---------2---2-2-----2-----------0-------0---0-0-----2-----------|
B|-----------------------------------------------------------------|
   1 e + a 2 e + a 3 e + a 4 e + a 1 e + a 2 e + a 3 e + a 4 e + a 


1:22
[Verse]

G|-----------------------------------------------------------------|
D|-----------------------------------------------------------------|
A|---------------0-2-----------------------------4-5---------------|
E|-----------------------------0-0-----------------------------0-0-|
B|-0-------0-----------0-----------3-------3-----------3-----------|
   1 e + a 2 e + a 3 e + a 4 e + a 1 e + a 2 e + a 3 e + a 4 e + a 

G|-----------------------------------------------------------------|
D|---------------2-4-----------------------------------2-----------|
A|-----------------------------------------------------------------|
E|-2-------2-----------2-------2-0---------0-------0---------------|
B|-------------------------------------------------------------0---|
   1 e + a 2 e + a 3 e + a 4 e + a 1 e + a 2 e + a 3 e + a 4 e + a 

G|-----------------------------------------------------------------|
D|-----------------------------------------------------------------|
A|-----2---------2-------------------------------5-----------------|
E|-----------------------------------------------------------------|
B|-0-------0---0-------0---0-0-2---3-------3-----------3---3-3-5---|
   1 e + a 2 e + a 3 e + a 4 e + a 1 e + a 2 e + a 3 e + a 4 e + a 

G|-----------------------------------------------------------------|
D|---------------4-------------------------------2-----------------|
A|---------------------------------------------------------0-2-2---|
E|-2-------2-----------2-------0---0-------0-----------0-2---------|
B|-----------------------------------------------------------------|
   1 e + a 2 e + a 3 e + a 4 e + a 1 e + a 2 e + a 3 e + a 4 e + a 


1:39
[Pre Chorus]

G|-----------------------------------------------------------------|
D|-----------------------------------------------------------------|
A|---------------2-------------------------------5-----------------|
E|-------------------------------------------------------------0---|
B|-0-------0-----------0-------2-2-3-------3-----------3-----------|
   1 e + a 2 e + a 3 e + a 4 e + a 1 e + a 2 e + a 3 e + a 4 e + a 

G|-----------------------------------------------------------------|
D|---------------4-----------------------------------------7-9-7---|
A|-----------------------------------------------7-----9---------9-|
E|-2-------2-----------2-------0-0-0-------0-----------------------|
B|-----------------------------------------------------------------|
   1 e + a 2 e + a 3 e + a 4 e + a 1 e + a 2 e + a 3 e + a 4 e + a 

G|-----------------------------------------------------------------|
D|-----------------------------------------------------------------|
A|-----------------------------------------------5-----------------|
E|-7-------7-----7-------------------------------------------------|
B|-------------------0-0-------2-2-3-------3-----------3---3-3-5---|
   1 e + a 2 e + a 3 e + a 4 e + a 1 e + a 2 e + a 3 e + a 4 e + a 

G|-----------------------------------------------------------------|
D|-----4---------4-------------------------------------------------|
A|-------------------------------------7---------7-----7---7-------|
E|-2-------2---2-------2-------0---0-------0-------------9---9-7---|
B|-----------------------------------------------------------------|
   1 e + a 2 e + a 3 e + a 4 e + a 1 e + a 2 e + a 3 e + a 4 e + a 


1:55
[Chorus]

G|-----------------------------------------------------------------|
D|-----------------------------------------------------------------|
A|-----------------------------------------------4-5---------------|
E|-7-------7---7-7---------------------------------------------0---|
B|-------------------0-0---0-----2-3---3---3-----------3-3---------|
   1 e + a 2 e + a 3 e + a 4 e + a 1 e + a 2 e + a 3 e + a 4 e + a 

G|-----------------------------------------------------------------|
D|---------------4-------------------------------------------------|
A|---------------------------------------------5-7-----7---7-9-7---|
E|-2-------2---------2-2-------0---0-------0---------9---9-------9-|
B|-----------------------------------------------------------------|
   1 e + a 2 e + a 3 e + a 4 e + a 1 e + a 2 e + a 3 e + a 4 e + a 

Rest

2:19
G|-------------|
D|-----7-9-----|
A|-9-----------|
E|---------7---|
B|-------------|
   + a 4 e + a

Rest

2:28
G|------------------------------------------------------------------|
D|o-----------------------------------------------------------------|
A|----------------------------------------------4-5-----------------|
E|o-----7---7---7-7-------------------------------------------0-2---|
B|----------------------0-------2---3-------3-----------3-----------|
    1 e + a 2 e + a 3 e + a 4 e + a 1 e + a 2 e + a 3 e + a 4 e + a 

G|------------------------------------------------------------------|
D|-------------2-4-------------------------------------------------o|
A|---------------------------------------------------------7-9-7----|x5
E|---------------------2-------0-0-0-----------0-0-----7-9-------9-o|
B|------------------------------------------------------------------|
   1 e + a 2 e + a 3 e + a 4 e + a 1 e + a 2 e + a 3 e + a 4 e + a 


3:09
[Chorus]

G|------------------------------------------------------------------|
D|o-----------------------------------------------------------------|
A|------------------------------------------------5-----------------|
E|o-7-------7-----5-7---------------------------------------0-2-2---|
B|----------------------0---0---2-2-3-------3-----------3-----------|
    1 e + a 2 e + a 3 e + a 4 e + a 1 e + a 2 e + a 3 e + a 4 e + a 

G|------------------------------------------------------------------|
D|-------------2-4-------------------------------------------------o|
A|-----------------------------------------------5-7-------7-9-7----|
E|---------------------2-------0-0-0-------0-----------7-9-------9-o|x3
B|------------------------------------------------------------------|
   1 e + a 2 e + a 3 e + a 4 e + a 1 e + a 2 e + a 3 e + a 4 e + a 

3:34

G|-----------------------------------------------------------------|
D|-----------------------------------------------------------------|
A|-----------------------------------------------5-----------------|
E|-7-------7---5-7-----------------------------------------0-2-2---|
B|---------------------0---0---2-2-3-------3-----------3-----------|
   1 e + a 2 e + a 3 e + a 4 e + a 1 e + a 2 e + a 3 e + a 4 e + a 

G|-----------------------------------------------------------------|
D|-------------2-4-----------------------------------------7-9-----|
A|-----------------------------------------------5-7---9-----------|
E|---------------------2-------0-0-0-------0-------------------7---|
B|-----------------------------------------------------------------|
   1 e + a 2 e + a 3 e + a 4 e + a 1 e + a 2 e + a 3 e + a 4 e + a 


[Outro]
3:43

G|-----------------------------------------------------------------|
D|-----------------------------------------------------------------|
A|-2-------2-----0-2-------2-------5-------5-----4-5-------5-------|
E|-----------------------------------------------------------------|
B|-----------------------------------------------------------------|
   1 e + a 2 e + a 3 e + a 4 e + a 1 e + a 2 e + a 3 e + a 4 e + a 

G|-----------------------------------------------------------------|
D|-4-------4-----4-----4-------4-4-2-------2-----2-------------2-2-|
A|-----------------------------------------------------------------|
E|-----------------------------------------------------------------|
B|-----------------------------------------------------------------|
   1 e + a 2 e + a 3 e + a 4 e + a 1 e + a 2 e + a 3 e + a 4 e + a 

G|-----------------------------------------------------------------|
D|-------------------------------------------------------------2---|
A|-2-------2-----2-------------2---5-------5---4-5-----5-----5-----|
E|-----------------------------------------------------------------|
B|-----------------------------------------------------------------|
   1 e + a 2 e + a 3 e + a 4 e + a 1 e + a 2 e + a 3 e + a 4 e + a 

G|-----------------------------------------------------------------|
D|-4---------------------------4-4---------------------------------|
A|---------------------------------------------------------0---4---|
E|---------2---2-2-----2-----------0-------0---0-0-----2-----------|
B|-----------------------------------------------------------------|
   1 e + a 2 e + a 3 e + a 4 e + a 1 e + a 2 e + a 3 e + a 4 e + a 

G|-----------------------------------------------------------------|
D|-----------------------------------------------------------------|
A|-2-------2-----0-2-------2-------5-------5-----4-5-------5-------|
E|-----------------------------------------------------------------|
B|-----------------------------------------------------------------|
   1 e + a 2 e + a 3 e + a 4 e + a 1 e + a 2 e + a 3 e + a 4 e + a 

G|-----------------------------------------------------------------|
D|-4-------4-----4-----4-------4-4-2-------2-----2-------------2-2-|
A|-----------------------------------------------------------------|
E|-----------------------------------------------------------------|
B|-----------------------------------------------------------------|
   1 e + a 2 e + a 3 e + a 4 e + a 1 e + a 2 e + a 3 e + a 4 e + a 


Tabbed by Dave Vucko

            
            
Suggest correction
Creating personal tab
Creating personal tab
You can edit any tab online and save it as your Personal.

You can edit, replace or remove any tab part or add personal notes – all changes will be seen only by you.

Personal tabs can be accessed anytime from any device, even offline.
Learn more »
comments
print report bad tab
28 comments total. Showing first comments.
0 reply
Achintya111100 10 Jul 15, 2013 07:27 AM

Does this song have to be played on 5 string

+1 reply
Teh D Bot 11,992 Jul 15, 2013 12:34 PM

Not necessarily, but you need to be able to play the low B for it to be accurate

0 reply
seanflood2012 66 Aug 20, 2013 08:19 AM

Would this work if i tuned my four string to BEAD?

guest
You may want to rate the tab now too:
select rating
Wanna post a correction for this tab? Suggest correction