Oops, an error
Loading. Please wait.

Give Life Back To Music bass

version 1
version 1

Whole song

Interactive

19,925 views 27 this week
1 commentread comment
1 2 3 4 5
x 8
add to favorites
×
Save as Personal and add changes to this tab that will be seen only by you. Learn more ›
×
You can save this tab as Personal to edit and correct it or add notes. All changes will be seen only by you. Learn more »
launch autoscroll
font size
0
reset
guitar tuner
backing track
0:00
0:00
edit
Autoscroll
slow
fast
+/-
esc
set tempo
stop
Author
Difficulty
intermediate
---------------------------------------------------|
-------DAFT PUNK: Give Life Back to Music----------|
---------------------------------------------------|
Tabbed by: BassMasterSlovakia
Youtube-channel: www.youtube.com/BassMasterSlovakia

Tuning: standard (EADG)

The whole song is in the following order:

[Intro] - 2x
G|-----------|------------|-----------|-----------|
D|-----------|------------|-----------|-----------|
A|-----------|------------|-----------|---------5-|
E|-----0-3-5-|------0-1-3-|-----3-5-1-|-----3-5---|

[1st riff] - 1x
G|-----------|------------|-----------|------------|
D|-----------|------------|-----------|------------|
A|-----------|------------|-----------|------------|
E|-----0-1---|--let ring--|-----0-5---|--let ring--|

G|-----------|------------|-----------|------------|
D|-----------|------------|-----------|------------|
A|-----------|------------|-----------|------------|
E|-----0-1---|--let ring--|-----0-5---|-------3----|

G|-----------|------------|-----------|------------|
D|-----------|------------|-----------|------------|
A|-----------|------------|-----------|------------|
E|-----0-1---|--let ring--|-----0-5---|--let ring--|

G|-----------|------------|-----------|------------|
D|-----------|------------|-----------|----5-------|
A|-----------|------------|-----------|------------|
E|-----0-1---|--let ring--|-----0-5---|--3---x3--0-|

[2nd riff] -1x
G|-----------|------------|-----------|-----------------|
D|-----------|------------|-----------|-----------------|
A|----5------|------------|------3----|-----------------|
E|-----------|------3-----|---3-------|------5--3h5-3-0-|

G|-----------|------------|-----------|-----------------|
D|-----------|------------|-----------|-----------------|
A|----5------|------5-----|-----------|-----------------|
E|-----------|----5-------|-----5-----|---3--3--3---3h5-|

G|-----------|------------|-----------|-----------------|
D|-----------|------------|-----------|-----------------|
A|----5------|------------|------3----|-----------------|
E|-----------|------3-----|---3-------|------5--3h5-3-0-|

G|-----------|------------|-----------|---------------------|
D|-----------|------------|-----------|------5----------5~--|
A|----5------|------5-----|-----------|-------------3/7-----|
E|-----------|----5-------|-----5-----|---3-----x-----------|

[3rd riff] - 1x
G|------------------|-----------------|----------------|---7---------------|
D|------------------|---5-------------|----------------|------------------~|
A|------------------|-----------------|----------------|-5---5-x5-3-5------|
E|-----5--5-5-------|-3---3-x3-0-5-0--|-1--1--1-1-3-5--|--------------3----|

G|------------------|-----------------|----------------|---7---5---4-------|
D|---7--------------|---5-------------|----------------|------------------~|
A|------------2-3---|-----------------|----------------|-5---3---2---------|
E|-5---5--5-5-------|-3---3-x3-0-5-0--|-1--1--1-1-3-5--|-------------x3----|

G|------------------|-----------------|----------------|---7---------------|
D|------------------|---5-------------|----------------|------------------~|
A|------------------|-----------------|----------------|-5---5-x5-3-5------|
E|-5---5--5-5-------|-3---3-x3-0-5-0--|-1--1--1-1-3-5--|--------------3----|

G|------------------|-----------------|----------------|---7---5-----------|
D|---7--------------|---5-------------|----------------|------------------~|
A|------------2-3---|-----------------|----------------|-5---3---2---------|
E|-5---5--5-5-------|-3---3-x3-0-5-0--|-1--1--1-1-3-5--|-------------------|

[Bridge] - 2x
G|-----------|------------|-----------|-----------|
D|-----------|------------|-----------|-----------|
A|-----------|------------|-----------|---------5-|
E|-----0-3-5-|------0-1-3-|-----3-5-1-|-----3-5---|

[4th riff] - 1x
G|------------------|-----------------|----------------|-------------------|
D|------------------|-----------------|----------------|------------------~|
A|------------------|-----------------|----------------|-5---5--5-5-5------|
E|-----5--5-5-------|-3---3--3-3-3-5--|-1--1--1-1-3-5--|--------------3----|

G|------------------|-----------------|----------------|---7---5---4-------|
D|---7--------------|-----------------|----------------|------------------~|
A|------------2-3---|-----------------|----------------|-5---3---2---------|
E|-5---5--5-5-------|-3---3--3-3-3-5--|-1--1--1-1-3-5--|-------------x3----|

G|------------------|-----------------|----------------|---7---------------|
D|------------------|---5-------------|----------------|------------------~|
A|------------------|-----------------|----------------|-5---5-x5-3-5------|
E|-5---5--5-5-------|-3---3-x3-0-5-0--|-1--1--1-1-3-5--|--------------3----|

G|------------------|-----------------|----------------|---7---5-----------|
D|---7--------------|---5-------------|----------------|------------------~|
A|------------2-3---|-----------------|----------------|-5---3---2---------|
E|-5---5--5-5-------|-3---3-x3-0-5-0--|-1--1--1-1-3-5--|-------------------|

G|------------------|-----------------|----------------|-------------------|
D|------------------|-----------------|----------------|------------------~|
A|------------------|-----------------|----------------|-5---5--5-5-5------|
E|-----5--5-5-------|-3---3--3-3-3-5--|-1--1--1-1-3-5--|--------------3----|

G|------------------|-----------------|----------------|---7---5-----------|
D|---7--------------|-----------------|----------------|------------------~|
A|------------2-3---|-----------------|----------------|-5---3---2---------|
E|-5---5--5-5-------|-3---3--3-3-3-5--|-1--1--1-1-3-5--|-------------------|

[Bridge] - 2x
G|-----------|------------|-----------|-----------|
D|-----------|------------|-----------|-----------|
A|-----------|------------|-----------|---------5-|
E|-----0-3-5-|------0-1-3-|-----3-5-1-|-----3-5---|

[5th riff] (same as 2nd riff) -
G|-----------|------------|-----------|-----------------|
D|-----------|------------|-----------|-----------------|
A|----5------|------------|------3----|-----------------|
E|-----------|------3-----|---3-------|------5--3h5-3-0-|

G|-----------|------------|-----------|-----------------|
D|-----------|------------|-----------|-----------------|
A|----5------|------5-----|-----------|-----------------|
E|-----------|----5-------|-----5-----|---3--3--3---3h5-|

G|-----------|------------|-----------|-----------------|
D|-----------|------------|-----------|-----------------|
A|----5------|------------|------3----|-----------------|
E|-----------|------3-----|---3-------|------5--3h5-3-0-|

G|-----------|------------|-----------|---------------------|
D|-----------|------------|-----------|------5----------5~--|
A|----5------|------5-----|-----------|-------------3/7-----|
E|-----------|----5-------|-----5-----|---3-----x-----------|

[Outro]
G|-----------|------------|-----------|------------|
D|-----------|------------|-----------|------------|
A|-----------|------------|-----------|------------|
E|-----0-1---|--let ring--|-----0-5---|--let ring--|

G|-----------|------------|-----------|------------|
D|-----------|------------|-----------|------------|
A|-----------|------------|-----------|------------|
E|-----0-1---|--let ring--|-----0-5---|-------3----|

G|-----------|------------|-----------|------------|
D|-----------|------------|-----------|------------|
A|-----------|------------|-----------|------------|
E|-----0-1---|--let ring--|-----0-5---|--let ring--|

G|-----------|------------|-----------|------------|
D|-----------|------------|-----------|----5-------|
A|-----------|------------|-----------|------------|
E|-----0-1---|--let ring--|-----0-5---|--3---x3--0-|

The song structure is fully tabbed above :)


************************************

| x  Dead note
| h  Hammer-on
| ~  Vibrato
| /  Slide up

************************************
Suggest correction
Creating personal tab
Creating personal tab
You can edit any tab online and save it as your Personal.

You can edit, replace or remove any tab part or add personal notes – all changes will be seen only by you.

Personal tabs can be accessed anytime from any device, even offline.
Learn more »
comments
print report bad tab
1 comment total.
0 reply
reysimulacro 375 Nov 05, 2013 03:57 PM

Intro Drop D

G|------------|------------|------------|------------|
D|------------|------------|------------|------------|
A|-----0------|------------|---0--------|------------|
D|-2-5--------|-0-2-3------|-5---0------|-0-2-3------|

guest
You may want to rate the tab now too:
select rating
Wanna post a correction for this tab? Suggest correction