Oops, an error
Loading. Please wait.

One More Time Bass

version 3
version 3

Whole song

Interactive

19,704 views 24 this week
3 commentsread comments
1 2 3 4 5
x 18
add to favorites
launch autoscroll
font size
0
reset
guitar tuner
×
Best way to learn
"One More Time"
Autoscroll
slow
fast
+/-
esc
set tempo
stop
Difficulty
novice
[Riff 1] 
(3x)
G|-----------------------------|  
D|-----------------------------|    
A|------------------------5----|  
E|-3---3-3---3-3---3-3--3---5--|  

(1x)
G|-----------------------------|
D|-----------------------------|
A|-----------------------------|  
E|-2--2--2--2--2--2--2-5-------|

[Riff 2]
(this parts actually mostly not on bass, but yea...)
G|-----------------------------|
D|-----------------------------|
A|-----------------------------|
E|-3------2------0------5------|
Suggest correction
comments
print report bad tab
3 comments total.
+4 reply
depimp135 10 Mar 24, 2008 11:51 AM

Xcellent!

+5 reply
Ultra Purple 20 May 09, 2012 05:52 PM

The only part that seems to be wrong is the amount of notes in the begginging:

G|-----------------------|
D|-----------------------|
A|------------------5----|
E|-3---3-3---3-3--3---55-|

Other than that, it's good!

0 reply
jackcorlett02 10 5 days ago

this is the way i was taught

G|-----------------------|
D|-----------------------|
A|------------------5-0--|
E|-3---3-3---3-3--3------|

guest
You may want to rate the tab now too:
select rating
Wanna post a correction for this tab? Suggest correction