Oops, an error
Loading. Please wait.

One More Time Bass Tab

version 3
version 3

Whole song

Interactive

19,389 views 42 this week
2 commentsread comments
1 2 3 4 5
x 18
add to favorites
launch autoscroll
font size
0
reset
guitar tuner
Autoscroll
slow
fast
+/-
esc
set tempo
stop
Help us to improve Ultimate-Guitar.com Take our survey!
×
Difficulty
novice
[Riff 1] 
(3x)
G|-----------------------------|  
D|-----------------------------|    
A|------------------------5----|  
E|-3---3-3---3-3---3-3--3---5--|  

(1x)
G|-----------------------------|
D|-----------------------------|
A|-----------------------------|  
E|-2--2--2--2--2--2--2-5-------|

[Riff 2]
(this parts actually mostly not on bass, but yea...)
G|-----------------------------|
D|-----------------------------|
A|-----------------------------|
E|-3------2------0------5------|
Suggest correction
comments
print report bad tab
2 comments total.
+4 reply
depimp135 10 Mar 24, 2008 03:51 PM

Xcellent!

+5 reply
Ultra Purple 20 May 09, 2012 09:52 PM

The only part that seems to be wrong is the amount of notes in the begginging:

G|-----------------------|
D|-----------------------|
A|------------------5----|
E|-3---3-3---3-3--3---55-|

Other than that, it's good!

guest
You may want to rate the tab now too:
select rating
Wanna post a correction for this tab? Suggest correction