Oops, an error
Loading. Please wait.

Sing It Again Rookie Biatch tab

1,929 views 3 this week
3 commentsread comments
1 2 3 4 5
x 3
add to favorites
×
Save as Personal and add changes to this tab that will be seen only by you. Learn more ›
×
You can save this tab as Personal to edit and correct it or add notes. All changes will be seen only by you. Learn more »
launch autoscroll
font size
0
reset
how to read this tab
guitar tuner
edit
Autoscroll
slow
fast
+/-
esc
set tempo
stop
Author
Difficulty
-------------------------------------------------------------------------------
          Daggermouth - Sing It Again Rookie Biatch!
-------------------------------------------------------------------------------


Tabbed by:raf(dont repost this with your name on it!)
Email:rafael1188@hotmail.com

its not the best tab ever, corrections welcomed.

a Couple things to know:

-There are 2 guitars, but for the most part they play the same thing (that i can hear),
except in a few sections, during htose parts, i labeled Lead/Rhythm.

-aint no party like a daggermouth party cuz' a daggermouth part don't stop!

-www.myspace.com/daggermouth


Intro

E----------------------------------------------------------------------------|
B----------------------------------------------------------------------------|
G--------------------------------9--9-9-9-9--9-/-10-/-12--12-12-12-12--------|
D--2--2-2-2-2-2--6-7--7-7-7-7-7--9--9-9-9-9--9-/-10-/-12--12-12-12-12--------|
A--2--2-2-2-2-2--6-7--7-7-7-7-7--7--7-7-7-7--7-/-8--/-10--10-10-10-10--------|
E--0--0-0-0-0-0--4-5--5-5-5-5-5----------------------------------------------| x2
      * * * * *       * * * *       * * * *               *  *  *  *

E-------------------|
B-------------------|
G---9~--------------|
D---9~--------------|
A---7~--------------|
E-------------------|


"As I stand here before your grave I know my life has changed..."

E---------------------------------------------------------------------------|
B---------------------------------------------------------------------------|
G--9-9-9-9-9-9----------------9-9-9-9-9-9-----------------------------------|
D--9-9-9-9-9-9-7-7-7-7-6-6-6--9-9-9-9-9-9-7-7-7-7-6-6-6---------------------|
A--7-7-7-7-7-7-7-7-7-7-6-6-6--7-7-7-7-7-7-7-7-7-7-6-6-6---------------------|
E--------------5-5-5-5-4-4-4--------------5-5-5-5-4-4-4---------------------|

"What else can I say, you were like a father to me" (not exact strumming pattern)

E---------------------------------------------------------------------------|
B---------------------------------------------------------------------------|
G--6---6---6---6---6/4-/-9---4---4---4---4---4---4---4---4------------------|
D--6---6---6---6---6/4-/-9---4---4---4---4---4---4---4---4------------------|
A--4---4---4---4---4/2-/-7---2---2---2---2---2---2---2---2------------------|
E---------------------------------------------------------------------------|

"And I know I surely cant let go..."
E---------------------------------------------------------------------------|
B---------------------------------------------------------------------------|
G--9-9-9-9-9-9----------------9-9-9-9-9-9-----------------------------------|
D--9-9-9-9-9-9-7-7-7-7-6-6-6--9-9-9-9-9-9-7-7-7-7-6-6-6---------------------|
A--7-7-7-7-7-7-7-7-7-7-6-6-6--7-7-7-7-7-7-7-7-7-7-6-6-6---------------------|
E--------------5-5-5-5-4-4-4--------------5-5-5-5-4-4-4---------------------|

"...of this dream"    "...Nothing will come between you & me"
E---------------------------------------------------------------------------|
B---------------------------------------------------------------------------|
G--6---6---6---6---6/4-/-9---4---4---4---4---4---4---4---4------------------|
D--6---6---6---6---6/4-/-9---4---4---4---4---4---4---4---4------------------|
A--4---4---4---4---4/2-/-7---2---2---2---2---2---2---2---2------------------|
E---------------------------------------------------------------------------|

"I promised you the day i left town"
E---------------------------------------------------------------------------|
B---------------------------------------------------------------------------|
G--2--2-2-2-2-2-2-2-2--4--4-4-4-4-4-4-4-4-----------------------------------|
D--2--2-2-2-2-2-2-2-2--4--4-4-4-4-4-4-4-4-----------------------------------|
A--0--0-0-0-0-0-0-0-0--2--2-2-2-2-2-2-2-2-----------------------------------|
E---------------------------------------------------------------------------|
      * * * * * * * *     * * * * * * * *

                                    ..."I wont let you down "

Rhythm Guitar          (not exact strum pattern)
E---------------------------------------------------------------------------|
B---------------------------------------------------------------------------|
G--4--4--4--4--4--4--4--4--4--4--4--4--4--4--4--4--4--4--4--4--4--4---------|
D--4--4--4--4--4--4--4--4--4--4--4--4--4--4--4--4--4--4--4--4--4--4---------|
A--2--2--2--2--2--2--2--2--2--2--2--2--2--2--2--2--2--2--2--2--2--2---------|
E---------------------------------------------------------------------------|

Lead (this part sounds really sketchy, but here it is anyways)
E---------------------------------------------------------------------------|
B---------------------------------------------------------------------------|
G----------------------7-7-7-7-7-7-9-9-9-9-9-9-12-12-12-12-12-12-9-9-9------|
D----------------------x-x-x-x-x-x-x-x-x-x-x-x--x--x--x--x--x--x-x-x-x------|
A----------------------5-5-5-5-5-5-7-7-7-7-7-7-10-10-10-10-10-10-7-7-7------|
E---------------------------------------------------------------------------|

"I promised you the day i left town"
E---------------------------------------------------------------------------|
B---------------------------------------------------------------------------|
G--2--2-2-2-2-2-2-2-2--4--4-4-4-4-4-4-4-4-----------------------------------|
D--2--2-2-2-2-2-2-2-2--4--4-4-4-4-4-4-4-4-----------------------------------|
A--0--0-0-0-0-0-0-0-0--2--2-2-2-2-2-2-2-2-----------------------------------|
E---------------------------------------------------------------------------|
      * * * * * * * *     * * * * * * * *

                                    ..."I wont let you down "

Rhythm Guitar
E---------------------------------------------------------------------------|
B---------------------------------------------------------------------------|
G--4--4--4--4--4--4--4--4--4--4--4--4--4--4--4--4--4--4--4--4--4--4---------|
D--4--4--4--4--4--4--4--4--4--4--4--4--4--4--4--4--4--4--4--4--4--4---------|
A--2--2--2--2--2--2--2--2--2--2--2--2--2--2--2--2--2--2--2--2--2--2---------|
E---------------------------------------------------------------------------|

Lead (this part sounds really sketchy, but here it is anyways)
E---------------------------------------------------------------------------|
B---------------------------------------------------------------------------|
G----------------------7-7-7-7-7-7-9-9-9-9-9-9-12-12-12-12-12-12-9-9-9------|
D----------------------x-x-x-x-x-x-x-x-x-x-x-x--x--x--x--x--x--x-x-x-x------|
A----------------------5-5-5-5-5-5-7-7-7-7-7-7-10-10-10-10-10-10-7-7-7------|
E---------------------------------------------------------------------------|

end with this (not the song, just this part)
E-------------------|
B-------------------|
G---7~--------------|
D---7~--------------|
A---5~--------------|
E-------------------|

Rhythm comes in with this at 1:30 (keep this up until about 2:10)

E-------------------|
B-------------------|
G----------2-2------|
D--2-2--X8-2-2--X8--|
A--2-2-----0-0------|
E--0-0--------------|

Lead guitar comes with this tapped part

If you dont know how, i hope this makes sense:

1. Keep your left finger placed on 5th fret
2. With your right finger, tap the 7th fret
(as your finger moves off it, you should hear the "5" on the tab)
3.After you hear the 5th fret, let go of it to, you should hear the "0")

same deal with the next part, except instead of tapping the 7th fret, you do 9th.

Simply tap 7th fret for the last one.

E-----------------------------------------------------------|
B--T7p5p0--T9p5p0--T7p5p0--T9p5p0--T7p0---------------------|
G-----------------------------------------------------------|
D-----------------------------------------------------------|
A-----------------------------------------------------------|
E-----------------------------------------------------------|


this is a little variation that comes on a little later.
E----------------------------------T7p0---------------------|
B--T7p5p0--T9p5p0--T7p5p0--T9p5p0---------------------------|
G-----------------------------------------------------------|
D-----------------------------------------------------------|
A-----------------------------------------------------------|
E-----------------------------------------------------------|

do this whole tapping thing until about 2:10


The end is kind of hard to hear, im working on it.

| /  slide up
| \  slide down
| h  hammer-on
| p  pull-off
| ~  vibrato
| +  harmonic
| x  Mute note

            
            
Suggest correction
Creating personal tab
Creating personal tab
You can edit any tab online and save it as your Personal.

You can edit, replace or remove any tab part or add personal notes – all changes will be seen only by you.

Personal tabs can be accessed anytime from any device, even offline.
Learn more »
Give kudos to tab author, rate the tab!
1 2 3 4 5
comments
print report bad tab
3 comments total.
0 reply
ohp-kyle 562 Jun 15, 2008 11:22 AM

Good job overall, but I do have some corrections to share.

***
Standard tuning, tuned a half-step down -- for those who don't know.

***
During the verse, I guess you could call it, you have a G#5 where there should be a C#5.

E5 C#5 A5
e|-----------------|
b|-----------------|
G|-9-9-9-9-6-6-----|
D|-9-9-9-9-6-6-7-7-|
A|-7-7-7-7-4-4-7-7-|
E|-------------5-5-|

***
After the tapping part, the lead does a little somethin' like this:

e|-----------------|-----------------|
b|-9999999977777777|575-0-575-0-70-5-|
G|-----------------|-----------------|
D|-----------------|-----------------|
A|-----------------|-----------------|
E|-----------------|-----------------|

Second variation
e|-----------------|-----------------|
b|-9090909070707070|575-0-575-0-70-5-|
G|-----------------|-----------------|
D|-----------------|-----------------|
A|-----------------|-----------------|
E|-----------------|-----------------|

Third variation
e|-----------------|------------7--0-|
b|-9090909070707070|575-0-575-0------|
G|-----------------|-----------------|
D|-----------------|-----------------|
A|-----------------|-----------------|
E|-----------------|-----------------|

Outro
x3
e|------------7--0-|-------5---------|
b|575-0-575-0------|-5-7-9---9-7-5---|
G|-----------------|-----------------|
D|-----------------|-----------------|
A|-----------------|-----------------|
E|-----------------|-----------------|

***

0 reply
ohp-kyle 562 Jun 30, 2008 08:45 PM

I screwed up! The part after the tapping, as well as the outro, goes like this:

e|-------------------------7--0--|
b|-4h5h7p5--0--4h5h7p5--0--------|
G|-------------------------------|
D|-------------------------------|
A|-------------------------------|
E|-------------------------------|

And the final bar of the outro goes like this:

e|----------5-------------|
b|-4--5--7-----7--4--5----|
G|------------------------|
D|------------------------|
A|------------------------|
E|------------------------|

0 reply
ohp-kyle 562 Oct 24, 2008 12:20 PM

The rhythm during the outro goes like this...

e|-----------------|-----------------|-----------------|-----------------|
b|-----------------|-----------------|-----------------|-----------------|
G|-9-9-9-9-9-9-9-9-|-6-6-6-6-6-6-6-6-|-----------------|-----------------|
D|-9-9-9-9-9-9-9-9-|-6-6-6-6-6-6-6-6-|-7-7-7-7-7-7-7-7-|-9-9-9-9-9-9-9-9-|
A|-7-7-7-7-7-7-7-7-|-4-4-4-4-4-4-4-4-|-7-7-7-7-7-7-7-7-|-9-9-9-9-9-9-9-9-|
E|-----------------|-----------------|-5-5-5-5-5-5-5-5-|-7-7-7-7-7-7-7-7-|

guest
You may want to rate the tab now too:
select rating
Wanna post a correction for this tab? Suggest correction