Oops, an error
Loading. Please wait.

The Trouble With Those Mothra Girls Tab

1,869 views 3 this week
1 commentread comment
1 2 3 4 5
excellent!
x 3
add to favorites
launch autoscroll
font size
0
reset
how to read this tab
guitar tuner
Tab Pro tools
  • play this tab
  • loop segment
  • change instrument
  • show fretboard
  • metronome
×
Best way to learn
"The Trouble With Those Mothra Girls"
Autoscroll
slow
fast
+/-
esc
set tempo
stop
Contributor
-----------------------------------------------------------------------------
THE TROUBLE WITH THOSE MOTHRA GIRLS - Daikaiju
-----------------------------------------------------------------------------
Tabbed by: the.insomniac247

Tuning: Standard

LEAD:
Part 1 (0:00-0:30)

e|--------------------------------------------------|
B|--------------------------------------------------|
G|------------888-8h9p8\6------------888-8h9p8\6----|
D|----666-4------------------666-4------------------|
A|--4----------------------4------------------------|
E|--------------------------------------------------|
								X4
e|--------------------------------------------------|
B|--------------------------------------------------|
G|------------666-6h8p6\4------------666-6h8p6\4----|
D|----444-2------------------444-2------------------|
A|--2----------------------2------------------------|
E|--------------------------------------------------|

RHYTHM:
Part 1 (0:07-0:30)

e|-4----4--4-----------------------|
B|-5----5----5----4----4--4--------|
G|-6----6------6--4----4----4------|	   X3
D|-6----6---------4----4------4----|
A|-4----4---------2----2-----------|
E|---------------------------------|


Part 2 (0:31-0:46)
LEAD:

e|--------------------------|
B|-------9------------------|
G|---------9-8-6-4-6/15-----|	    X2
D|-7-7-7--------------------|
A|-7-7-7--------------------|
E|-5-5-5--------------------|

Then

e|------------------------------------------------|
B|--------9---------------------------------------|
G|----------9-8-4-4-4-----1-1-1-5-5-5-6-6-6β€”8b----|
D|-7-7-7--------------2-4-------------------------|
A|-7-7-7------------------------------------------|
E|-5-5-5------------------------------------------|


RHYTHM:
e|-------------------------|
B|-------------------------|
G|---------9-8--6-6-6-6----|	X2
D|-7-7-7---9-8--6-6-6-6----|
A|-7-7-7---7-6--4-4-4-4----|
E|-5-5-5-------------------|

Then

e|-----------------------------------------------------|
B|-----------------------------------------------------|
G|---------9-8--4-4-4-4--------------------------------|
D|-7-7-7---9-8--4-4-4-4-4/6-6-6-6-6-6-6-6-6-6-6-6-6----|
A|-7-7-7---7-6--2-2-2-2-4/6-6-6-6-6-6-6-6-6-6-6-6-6----|
E|-5-5-5----------------2/4-4-4-4-4-4-4-4-4-4-4-4-4----|


Part 3 (0:47-0:53)
LEAD:

e|---4--0----------------------0b----|
B|-2------4-0-4h5p4h5p4-2------1b----|
G|-------------------------4---2b----|	   X2
D|-----------------------------------|
A|-----------------------------------|
E|-----------------------------------|

RHYTHM:
e|-4-4-4-----------|
B|-5-5-5--2-2-2----|
G|-6-6-6--3-3-3----|	X2
D|-6-6-6--4-4-4----|
A|-4-4-4--4-4-4----|
E|--------2-2-2----|


Part 4 (0:54-1:02)
LEAD:

e|----------------------------------------------------|
B|----------------------------------------------------|
G|-6-8-9-9-9-9-11-8b----6-8-9-9-9-9-13--11-9-11-11----|
D|----------------------------------------------------|
A|-4-6-7-7-7-7-9--6b----4-6-7-7-7-7-11--9--7-9--9-----|
E|----------------------------------------------------|

RHYTHM:
e|-------------------------------------------------------------------|
B|-------------------------------------------------------------------|
G|--------------------------------------------11-11-11-11-11-11-11---|
D|-4-6-7-7-7-7-9--6-6-6\4/6----4-6-7-7-7-7-11-11-11-11-11-11-11-11---|
A|-4-6-7-7-7-7-9--6-6-6\4/6----4-6-7-7-7-7-11-9--9--9--9--9--9--9----|
E|-2-4-5-5-5-5-7--4-4-4\2/4----2-4-5-5-5-5-9-------------------------|


BASS INTERLUDE (1:03-1:09)

Part 5 (1:10-1:26)
LEAD:

e|-------------------4-2-0-2----4-5-4-2-4-4----|
B|-5-4-2-0-2-4-2-4-5---------------------------|
G|---------------------------------------------|
D|---------------------------------------------|
A|---------------------------------------------|
E|---------------------------------------------|

-4-5-7-7/9-7-5-5h7p5\4h5p4\2h4p2------------------|
--------------------------------5-5p4h5-0-2-4b----|
--------------------------------------------------|
--------------------------------------------------|
--------------------------------------------------|
--------------------------------------------------|

RHYTHM:
Repeat Part 1 twice


Part 6 (1:27-1:41)
LEAD: Repeat Part 1 twice

RHYTHM:
e|--------------------------------------------------|
B|--------------------------------------------------|
G|------------888-8h9p8\6------------888-8h9p8\6----|
D|----666-4------------------666-4------------------|
A|--4----------------------4------------------------|
E|--------------------------------------------------|
								X2
e|--------------------------------------------------|
B|--------------------------------------------------|
G|------------666-6h8p6\4------------666-6h8p6\4----|
D|----444-2------------------444-2------------------|
A|--2----------------------2------------------------|
E|--------------------------------------------------|


Part 7 (1:42-1:58)
LEAD & RHYTHM: Repeat Part 2


Part 8 (1:59-2:05)
LEAD & RHYTHM: Repeat Part 3


Part 9 (2:06-2:13)
LEAD & RHYTHM: Repeat Part 4


Part 10 (2:14-2:46)
LEAD: Solo

RHYTHM:
           X16        X16	   X16
e|-4-4-4--4-----------------------------------------------------------|
B|-5-5-5--5----4-4-4--4-----------------------------------------------|
G|-6-6-6--6----4-4-4--4----6-6-6--6x----5-5-5--5-5-5--5-5-5--5-5-5----| X2
D|-6-6-6--6----4-4-4--4----7-7-7--7x----6-6-6--6-6-6--6-6-6--6-6-6----|
A|-4-4-4--4----2-2-2--2----7-7-7--7x----6-6-6--6-6-6--6-6-6--6-6-6----|
E|-------------------------5-5-5--5x----4-4-4β€”-4-4-4--4-4-4--4-4-4----|


Part 11 (2:47-2:54)
LEAD & RHYTHM: Repeat Part 3


Part 12 (2:55-3:02)
LEAD & RHYTHM: Repeat Part 4


Part 13 (3:03-3:09)
LEAD & RHYTHM: Repeat Part 3


Part 14 (3:10-3:17)
LEAD & RHYTHM: Repeat Part 4

End on
e|-4-4-4-|
B|-5-5-5-|
G|-6-6-6-|
D|-6-6-6-|
A|-4-4-4-|
E|-------|


http://www.daikaiju.org/

************************************

| /   slide up
| \   slide down
| h   hammer-on
| p   pull-off
| ~   vibrato
| +   harmonic
| x   Mute note
| b   Bend
| pb  Pre-bend
| br  Bend release
| pbr Pre-bend release
| brb Bend release bend

************************************
comments
We did not receive enough feedback on this tab! Please rate:
print report bad tab
1 2 3 4 5
1 comment total.
0 reply
SaltyWounds wrote on August 31 2014, 03:45 pm

I made an account just to say thank you, It sounds spot on! And with a username as "HARDROCKER12345" I wouldn't be surprised if you're actually one of the Daikaiju members.

Hope to see more Daikaiju tabs in the future.

I want to post or [tab]
guest
You may want to rate the tab now too:
select rating
Please do not post tabs as comments. Select "correction" instead!