Oops, an error
Loading. Please wait.

Pen Pineapple Apple Pen Ppap Tab

8,890 views 534 this week
1 commentread comment
1 2 3 4 5
x 11
add to favorites
launch autoscroll
font size
0
reset
how to read this tab
guitar tuner
Autoscroll
slow
fast
+/-
esc
set tempo
stop
Help us to improve Ultimate-Guitar.com Take our survey!
×
Author
Difficulty
intermediate
About this tab version
It's the first original tabs by me. Have fun. Was this info helpful? Yes No
[Intro]

e|-9-7-4-2-0--------------|
B|-----------2-0----------|
G|---------------1--------|
D|-----------------4/16---|
A|------------------------|
E|------------------------|


[Verse]

(P-P-A-P)

Lead Guitar
e|------9---|---------9--|---------9--|-----------|
B|----------|------------|------------|-----------|
G|-6-6------|-6-6-6------|-6-6-6------|-6---------|
D|----------|------------|------------|----6-9-9--|
A|----------|------------|------------|-----------|
E|----------|------------|------------|-----------|

Rhythm Guitar
e|----------|------------|------------|-----------|
B|----------|------------|------------|-----------|
G|-6-6--19--|-6-6-6--19--|-6-6-6--19--|-6---------|
D|-6-6--19--|-6-6-6--19--|-6-6-6--19--|-6--6-9-9--|
A|-4-4--16--|-4-4-4--16--|-4-4-4--16--|-4--6-9-9--|
E|----------|------------|------------|----4-7-7--|

Lead Guitar
e|------9---|---------9--|---------9--|-----------|
B|----------|------------|------------|-----------|
G|-6-6------|-6-6-6------|-6-6-6------|-6~--------|
D|----------|------------|------------|-----------|
A|----------|------------|------------|-----------|
E|----------|------------|------------|-----------|

Rhythm Guitar
e|----------|------------|------------|-----------|
B|----------|------------|------------|-----------|
G|-6-6--19--|-6-6-6--19--|-6-6-6--19--|-6---------|
D|-6-6--19--|-6-6-6--19--|-6-6-6--19--|-6---------|
A|-4-4--16--|-4-4-4--16--|-4-4-4--16--|-4---------|
E|----------|------------|------------|-----------|

(I have a pen...)

Lead Guitar                                          (x4)
e|------9---|---------9--|---------9--|-----------------|
B|----------|------------|------------|-----------------|
G|-6-6------|-6-6-6------|-6-6-6------|-6---------------|
D|----------|------------|------------|----6-9-9--------|
A|----------|------------|------------|-----------------|
E|----------|------------|------------|-----------------|

Rhythm Guitar                                        (x4)
e|----------|------------|------------|-----------------|
B|----------|------------|------------|-----------------|
G|-6-6--19--|-6-6-6--19--|-6-6-6--19--|-6---------------|
D|-6-6--19--|-6-6-6--19--|-6-6-6--19--|-6--6-9-9--------|
A|-4-4--16--|-4-4-4--16--|-4-4-4--16--|-4--6-9-9--------|
E|----------|------------|------------|----4-7-7--------|


[Chorus]

(Apple pen...)

e|-------|--------------------|
B|-------|-------|------------|
G|-6-6-6-|-9-9-9-|-9----------|
D|-6-6-6-|-9-9-9-|-11-(hold)--|
A|-4-4-4-|-7-7-7-|-11---------|
E|-------|--------------------|

(Uh! Pen Pineapple Apple Pen)


[Outro]

Lead Guitar
e|------9---|---------9--|---------9--|-----------|
B|----------|------------|------------|-----------|
G|-6-6------|-6-6-6------|-6-6-6------|-6---------|
D|----------|------------|------------|----6-9-9--|
A|----------|------------|------------|-----------|
E|----------|------------|------------|-----------|

Rhythm Guitar
e|----------|------------|------------|-----------|
B|----------|------------|------------|-----------|
G|-6-6--19--|-6-6-6--19--|-6-6-6--19--|-6---------|
D|-6-6--19--|-6-6-6--19--|-6-6-6--19--|-6--6-9-9--|
A|-4-4--16--|-4-4-4--16--|-4-4-4--16--|-4--6-9-9--|
E|----------|------------|------------|----4-7-7--|

Lead Guitar
e|------9---|---------9~-|
B|----------|------------|
G|-6-6------|-6-6-6------|
D|----------|------------|
A|----------|------------|
E|----------|------------|

Rhythm Guitar
e|----------|-------------------|
B|----------|-------------------|
G|-6-6--19--|-6-6-6--19---------|
D|-6-6--19--|-6-6-6--19-(hold)--|
A|-4-4--16--|-4-4-4--16---------|
E|----------|-------------------|

(Pen Pineapple Apple Pen)



************************************

| \   Slide down
| ~   Vibrato

************************************
Suggest correction
comments
print report bad tab
1 comment total.
-1 reply
zippety 12 Nov 15, 2016 04:34 AM

didn't like this contribution

guest
You may want to rate the tab now too:
select rating
Wanna post a correction for this tab? Suggest correction