Oops, an error
Loading. Please wait.

Rebellion Ragnas Theme Tab

version 1
version 1

Whole song

Interactive

5,595 views 27 this week
no commentswrite comment
1 2 3 4 5
please rate
add to favorites
launch autoscroll
font size
0
reset
how to read this tab
guitar tuner
Autoscroll
slow
fast
+/-
esc
set tempo
stop
Help us to improve Ultimate-Guitar.com Take our survey!
×
Contributor
Difficulty
Tuning
djacop 60
intermediate
D# G# C# F# A# D#
Daisuke Ishiwatari - Rebellion (Ragna's Theme)
Blazblue OST

Tuning: half-step down

Lead Guitar
INTRO
|---------------------------------------------------|
|---3-----------------------------------------------|
|---2-----------------------------7-----------------| x5
|------------------2--------------5--------------5--|
|------------------2--------4-5-4----------------3--|
|------0-3-0-3-5-3----0-3-0----------0-3-0-3-5-3----|

|-----------------------------------------|
|-----------------------------------------|
|-----4---2-------2-------5---5---0-------|
|-----4---2---2---2-------5---5---0--3----|
|-------------2----------------------3----|
|-------------------3-5-7-----------------|


RIFF 1
|--------------------------|----------------------------------------|
|--------------------------|----------------------------------------|
|-6-7-9--7-6-7-------------|------9--12-11-12-14--12-11--12-11--12--|
|--------------7--9-7-5----|--/9------------------------------------|
|-----------------------9--|----------------------------------------|
|--------------------------|----------------------------------------|


|---------------------------------------------------|
|---------------------------------------------------|
|--11----12-11-9---------------9-9----9-------------|
|----------------12------12-9------12---12-10-9-----|
|-----------------------------------------------12--|
|---------------------------------------------------|

|-------------------------------------------------------------|
|---------------------------------------12--13-12-------------|
|----------9-11-9-11-12---11-12-14--12-------------14-12--11--|
|--9--9-12----------------------------------------------------|
|-------------------------------------------------------------|
|-------------------------------------------------------------|

RIFF 2
|-------------------------------------------------------|
|-------------------------------------------------------|
|--/14--12----14--12----14--12----/12--11---------------|
|-------------------------------------------12----------|
|-----------------------------------------------12--14--|
|-------------------------------------------------------|

|------------------------------------------------|
|------------------------------------------------|
|--11----12--11----12--11----14--16--14--12------|
|--------------------------------------------16--|
|------------------------------------------------|
|------------------------------------------------|

----------------------------------|------------------------------------|
----------------------------------|----------------15-13-------13--12--|
--------------12---------------12-|--16-14-----------------------------|
--14----16--------16-14--14-16----|---------16--12---------------------|
----------------------------------|------------------------------------|
----------------------------------|------------------------------------|

RIFF 3
|----------------------------------|---17----15--14-------------|
|-----------------------------12---|-----------------15----/19--|
|------14--12-----------12-14------|----------------------------|
|-/14----------------14------------|----------------------------|
|----------------------------------|----------------------------|
|----------------------------------|----------------------------|

|-----------------------------------------17-15--14--15-14-14---|
|--15-17-19----------------------12-15--------------------------|
|------------16-------------------------------------------------|
|----------------17--19-17-16-----------------------------------|
|---------------------------------------------------------------|
|---------------------------------------------------------------|


Repeat all from INTRO to RIFF 3, then…


PRE-SOLO
|---------------------------|
|-----------------8------8--|
|--------9--11-------11-----|
|-----9---------------------|
|--7------------------------|
|---------------------------|

|---------------------------|------------------------------|
|-----------------8------8--|------------8----10--12--10---|
|--------9--11-------11-----|--------10--------------------|
|-----9---------------------|-----7------------------------|
|--7------------------------|--8---------------------------|
|---------------------------|------------------------------|

------------------------------|---------------------------|
------------------------------|-----------------8------8--|
--12--11--9------------9------|--------9--11-------11-----|
-------------12----12-----12--|-----9---------------------|
------------------------------|--7------------------------|
------------------------------|---------------------------|

---------------------------|---------------------------|
-----------------8------8--|------------8----8------8--|
--------9--11-------11-----|--------10----------10-----|
-----9---------------------|-----7---------------------|
--7------------------------|--8------------------------|
---------------------------|---------------------------|

------------------------------|
--10--8--10--12------13--12---|
------------------------------|
------------------------------|
------------------------------|
------------------------------|

SOLO
--17-12----------12-17-12----------12-17-12----------12-17-12----------12-|
--------15-12-15----------15-12-15----------15-12-15----------15-12-15----|
--------------------------------------------------------------------------|
--------------------------------------------------------------------------|
--------------------------------------------------------------------------|
--------------------------------------------------------------------------|


--17-12----------12-17-12----------12-17-12-------------------------------|
--------15-12-15----------15-12-15----------15-12-15-12----12-------------|
--------------------------------------------------------14----14-15-14-15-|
--------------------------------------------------------------------------|
--------------------------------------------------------------------------|
--------------------------------------------------------------------------|

----------------------------------------------------------------------|
-------------15--15-15-15-15-15-15--15-15-15-15-15-15--15-15-15-15-15-|
--14-12------14s-16-16-16-16-16-14s-16-16-16-16-16-14s-16-16-16-16-16-|
----------------------------------------------------------------------|
----------------------------------------------------------------------|
----------------------------------------------------------------------|

--15-15-15-15-15-15-17-17-17-17-17-17----19----19----19---17s-|
--15-15-15-15-15-15-15-15-15-15-15-15-15----15----15----------|
--------------------------------------------------------------|
--------------------------------------------------------------|
--------------------------------------------------------------|
--------------------------------------------------------------|

--22---20-22-20-19----19----------------------|
-------------------22----22-20-19-22-20-19-17-|
----------------------------------------------|
----------------------------------------------|
----------------------------------------------|
----------------------------------------------|

--------------------------------------------------|
--20-19-17-15-17-15----15----------------15----15-|
--------------------16----16-15-14-15-16----16----|
--------------------------------------------------|
--------------------------------------------------|
--------------------------------------------------|

------------------------------------------------------------------------------|
17-17-17-17-17-17-17-17-19-19-19-19-19-19-19-19-20-20-20-20-20-20-20-20-19-19-|
------------------------------------------------------------------------------|
------------------------------------------------------------------------------|
------------------------------------------------------------------------------|
------------------------------------------------------------------------------|

-----------22-------------|
--22b----------22b--------|
--------------------------|
--------------------------|
--------------------------|
--------------------------|

SOLO 2ND PART
--17-19-17-15-17-15----15-------------------------|
--------------------17----17-15-17-15----15-------|
--------------------------------------17----17-16-|
--------------------------------------------------|
--------------------------------------------------|
--------------------------------------------------|

--17-19-17-15-17-15----15-------------------------|
--------------------17----17-15-17-15----15-------|
--------------------------------------17----17-16-|
--------------------------------------------------|
--------------------------------------------------|
--------------------------------------------------|

--17-19-17-15-17-15----15-------------------------|--17----20--19----15------|
--------------------17----17-15-17-15----15-------|--------------------------|
--------------------------------------17----17-16-|--------------------------|
--------------------------------------------------|--------------------------|
--------------------------------------------------|--------------------------|
--------------------------------------------------|--------------------------|

--17-19-17-15-17-15----15-------------------------|
--------------------17----17-15-17-15----15-------|
--------------------------------------17----17-16-|
--------------------------------------------------|
--------------------------------------------------|
--------------------------------------------------|

--17-19-17-15-17-15----15-------------------------|
--------------------17----17-15-17-15----15-------|
--------------------------------------17----17-16-|
--------------------------------------------------|
--------------------------------------------------|
--------------------------------------------------|

-----------------------------15----15-17-15-17-19-|--20----19----20----22----|
-----------15----15-17-15-17----17----------------|--------------------------|
--14-16-17----17----------------------------------|--------------------------|
--------------------------------------------------|--------------------------|
--------------------------------------------------|--------------------------|
--------------------------------------------------|--------------------------|

--22b---------|
--------------|
----------14--|
--------------|
--------------|
--------------|

PRE-CHORUS and CHORUS two times
Play INTRO riff
*end*

Legend:
h = hammer on
p = pull off
b = bend
__ = hold bend
() = bring bent note back to normal
h/ = pick once
p\ = pick once
h/p\ = pick once
~ = vibrato
* = pinch harmonic
T = tap


*note - Saw this tab off the internet and I made some revisions of my own.
The harmonized guitar parts are lacking in this tab, but I think this pretty much 
covers the song. enjoy~
Suggest correction new What's this?
You can suggest a correction to this tab. Community and Mods will review your correction and vote to approve or reject it.
comments
We did not receive enough feedback on this tab! Please rate:
print report bad tab
1 2 3 4 5
guest
You may want to rate the tab now too:
select rating
Please do not post tabs as comments. Select "correction" instead!