Oops, an error
Loading. Please wait.

Still In The Dark tab

version 1
version 1

Whole song

Interactive

5,860 views 1 this week
no commentswrite comment
1 2 3 4 5
x 3
add to favorites
×
Save as Personal and add changes to this tab that will be seen only by you. Learn more ›
×
You can save this tab as Personal to edit and correct it or add notes. All changes will be seen only by you. Learn more »
launch autoscroll
font size
0
reset
how to read this tab
guitar tuner
edit
Autoscroll
slow
fast
+/-
esc
set tempo
stop
Author
Still In The Dark (Millia-Rage vs Zato1 EX)
From Guilty Gear X+ and all console versions of XX
Song atrritubed to Daisuke Ishiwatari
Tabbed by Stefan H
Contact: stef_hitchhiker42 (at) yahoo (dot) ca for corrections/suggestions


Gtr 1 (E A D G B E) - Rhythm w/ Distortion
Gtr 2 (E A D G B E) - 1st Lead w/ Distortion
Gtr 3 (E A D G B E) - 2nd Lead w/ Distortion


  mm = 184


             Gtr 2

  Q        e   E   E   E   E   E   E   E   +E   E   E   E   E   E   E   E  
|--------|--------------------------------|--------------------------------|
|--------|---------8-------7-p-5-------5--|(5)------8-------7-p-5-------5--|
|--------|-----7-------7-----------7------|-----7-------7-----------7------|
|--------|--------------------------------|--------------------------------|
|--------|--------------------------------|--------------------------------|
|--------|--------------------------------|--------------------------------|
|
| Gtr 1
|
| Q        W                               +H.                     +E   E 
|--------|--------------------------------|--------------------------------|
|--------|--------------------------------|--------------------------------|
|--------|--------------------------------|--------------------------------|
|--------|-2------------------------------|(2)---------------------(2)--5--|
|--------|-2------------------------------|(2)---------------------(2)--5--|
|14\-----|-0------------------------------|(0)---------------------(0)--3--|


 +E   E   E   E   E   E   E   E   +E   E   E   E   E   E   E    E  
|--------------------------------|-------------------------5-------|
|(5)------8-------7-p-5-------5--|(5)------8-------7-h-8--------5--|
|-----7-------7-----------7------|-----7-------7-------------------|
|--------------------------------|---------------------------------|
|--------------------------------|---------------------------------|
|--------------------------------|---------------------------------|
|
|+W                               +H.                     +E    E
|--------------------------------|---------------------------------|
|--------------------------------|---------------------------------|
|--------------------------------|---------------------------------|
|(5)-----------------------------|(5)---------------------(5)--/7--|
|(5)-----------------------------|(5)---------------------(5)--/5--|
|(3)-----------------------------|(3)---------------------(3)------|


 +E   E   E   E   E   E   E   E   +E   E   E   E   E   E   E    E  
|--------------------------------|---------------------------------|
|(5)------8-------7-p-5-------5--|(5)------8-------7-p-5--------5--|
|-----7-------7-----------7------|-----7-------7-----------7-------|
|--------------------------------|---------------------------------|
|--------------------------------|---------------------------------|
|--------------------------------|---------------------------------|
|
|+W                               +H.                     +E    E    
|--------------------------------|---------------------------------|
|--------------------------------|---------------------------------|
|--------------------------------|---------------------------------|
|(7)-----------------------------|(7)---------------------(7)--\5--|
|(5)-----------------------------|(5)---------------------(5)--\3--|
|--------------------------------|---------------------------------|


 +E   E   E   E   E   E   E    E   +E   E   E   E   E   E   E    E 
|---------------------------------|-------------------------5-------|
|(5)------8-------7-p-5--------5--|(5)------8-------7-h-8--------5--|
|-----7-------7-----------7-------|-----7-------7-------------------|
|---------------------------------|---------------------------------|
|---------------------------------|---------------------------------|
|---------------------------------|---------------------------------|
|
| H.                     +E    E   +H.                     +E    E      
|---------------------------------|---------------------------------|
|---------------------------------|---------------------------------|
|---------------------------------|---------------------------------|
|-5----------------------(5)--/7--|(7)---------------------(7)--\2--|
|-3----------------------(3)--/5--|(5)---------------------(5)--\2--|
|---------------------------------|------------------------------0--|


  Gtr 2,3

 +E   E   E   E   E   E   E   E   +E   E   E   E   E   E   E    E  
|--------------------------------|---------------------------------|
|(5)------8-------7-p-5-------5--|(5)------8-------7-p-5--------5--|
|-----7-------7-----------7------|-----7-------7-----------7-------|
|--------------------------------|---------------------------------|
|--------------------------------|---------------------------------|
|--------------------------------|---------------------------------|
|
| W                               +H.                     +E    E   
|--------------------------------|---------------------------------|
|--------------------------------|---------------------------------|
|--------------------------------|---------------------------------|
|-2------------------------------|(2)---------------------(2)--/5--|
|-2------------------------------|(2)---------------------(2)--/5--|
|-0------------------------------|(0)---------------------(0)--/3--|


 +E   E   E   E   E   E   E   E   +E   E   E   E   E   E   E    E  
|--------------------------------|-------------------------5-------|
|(5)------8-------7-p-5-------5--|(5)------8-------7-h-8--------5--|
|-----7-------7-----------7------|-----7-------7-------------------|
|--------------------------------|---------------------------------|
|--------------------------------|---------------------------------|
|--------------------------------|---------------------------------|
|
|+W                               +H.                     +E    E      
|--------------------------------|---------------------------------|
|--------------------------------|---------------------------------|
|--------------------------------|---------------------------------|
|(5)-----------------------------|(5)---------------------(5)--/7--|
|(5)-----------------------------|(5)---------------------(5)--/5--|
|(3)-----------------------------|(3)---------------------(3)------|


 +E   E   E   E   E   E   E   E   +E   E   E   E   E   E   E    E  
|--------------------------------|---------------------------------|
|(5)------8-------7-p-5-------5--|(5)------8-------7-p-5--------5--|
|-----7-------7-----------7------|-----7-------7-----------7-------|
|--------------------------------|---------------------------------|
|--------------------------------|---------------------------------|
|--------------------------------|---------------------------------|
|
|+W                               +H.                     +E    E
|--------------------------------|---------------------------------|
|--------------------------------|---------------------------------|
|--------------------------------|---------------------------------|
|(7)-----------------------------|(7)---------------------(7)--\5--|
|(5)-----------------------------|(5)---------------------(5)--\3--|
|--------------------------------|---------------------------------|


 +E   E   E   E   E   E   E    E   +E   E   E   E   E   E   Q
|---------------------------------|-------------------------5------|
|(5)------8-------7-p-5--------5--|(5)------8-------7-h-8----------|
|-----7-------7-----------7-------|-----7-------7------------------|
|---------------------------------|--------------------------------|
|---------------------------------|--------------------------------|
|---------------------------------|--------------------------------|
|
|+H.                     +E    E   +W                              
|---------------------------------|--------------------------------|
|---------------------------------|--------------------------------|
|---------------------------------|--------------------------------|
|(5)---------------------(5)--/7--|(7)-----------------------------|
|(3)---------------------(3)--/5--|(5)-----------------------------|
|---------------------------------|--------------------------------|


  Gtr 2

  Q.         a Q.          E   E   a Q.          Q       Q       E  
|------------5b7------------------|---------------------------------|
|-5------------------------5------|---------------------------------|
|------------------------------7--|7b9-----------7-------5-------4--|
|---------------------------------|---------------------------------|
|---------------------------------|---------------------------------|
|---------------------------------|---------------------------------|
|
| E   E   E    E   E   E   E   E     E   S S E   E   E   E   E   E 
|---------------------------------|---------------------------------|
|---------------------------------|---------------------------------|
|---------------------------------|---------------------------------|
|---------------------------------|---------------------------------|
|-2-------------------------------|---------------------------------|
|-0---0---0----0---0---0---0---0--|--0---0-0-0---0---0---0---0---0--|
     PM.............................................................


  Gtr 3

  h               E   E   E   E    E   E   E   Q       E   Q      
|--------------------------------|-------------7------------------|
|-------------------------8------|---------8----------------------|
|-----------------7---9-------9--|-7---9---------------7---9------|
|--------------------------------|--------------------------------|
|--------------------------------|--------------------------------|
|--------------------------------|--------------------------------|
|
| Gtr 2
|
|+W                               +W
|--------------------------------|--------------------------------|
|--------------------------------|--------------------------------|
|(4)--~-~-~-~-~-~---~---~---~---~|(4)--~---~---~---~---~---~---~--|
|--------------------------------|--------------------------------|
|--------------------------------|--------------------------------|
|--------------------------------|--------------------------------|
|
| E   S S E   E   E   E   E   E    E   E   E   S S E   E   E   E  
|--------------------------------|--------------------------------|
|--------------------------------|--------------------------------|
|--------------------------------|--------------------------------|
|--------------------------------|--------------------------------|
|--------------------------------|--------------------------------|
|-0---0-0-0---0---0---0---0---0--|-0---0---0---0-0-0---0---0---0--|
 ...............................................................

  W                               +W                              
|--------------------------------|--------------------------------|
|--------------------------------|--------------------------------|
|-9------------------------------|(9)-----------------------------|
|--------------------------------|--------------------------------|
|--------------------------------|--------------------------------|
|--------------------------------|--------------------------------|
|
| E   E   E   E   E   E   E   E   +E   E   E   E   E   E   Q      
|--------------------------------|--------------------------------|
|-5-------8-------7-p-5-------5--|(5)------8-------7-p-5----------|
|-----7-------7-----------7------|-----7-------7-----------7------|
|--------------------------------|--------------------------------|
|--------------------------------|--------------------------------|
|--------------------------------|--------------------------------|
|
| E   S S E   E   E   E   E   E    E   E   E   E   E   E   E   S S
|--------------------------------|--------------------------------|
|--------------------------------|--------------------------------|
|--------------------------------|--------------------------------|
|-5------------------------------|-7-------5-------4---5---7------|
|-3---3-3-3---3---3---3---3---3--|-5---5-------5------------------|
|--------------------------------|-----------------------------0-0|
     PM........................       PM      PM              PM..


   Q       E   Q       E   E   E    Q       E   Q      +E   q      
|-------------17------14----------|--------------------------------|
|-15----------------------17--15--|--------------------------------|
|---------16----------------------|14------16--14-------\----------|
|---------------------------------|--------------------------------|
|---------------------------------|--------------------------------|
|---------------------------------|--------------------------------|
|
|  Q       E   Q       E   E   E    Q       E   Q      +E   q       
|/10-------7--10-------7--10---7--|---------7----------------------|
|---------------------------------|10----------10-------\----------|
|---------------------------------|--------------------------------|
|---------------------------------|--------------------------------|
|---------------------------------|--------------------------------|
|---------------------------------|--------------------------------|
|
|  E   E   E   E   E   E   E   E    H               H              
|---------------------------------|--------------------------------|
|---------------------------------|--------------------------------|
|---------------------------------|-5---------------7--------------|
|---------------------------------|-5---------------7--------------|
|--2------------------------------|-3---------------5--------------|
|--0---0---0---0---0---0---0---0--|--------------------------------|
      PM........................


  Gtr 2

  Q.         a Q.          E   E   a Q.          Q       Q       E  
|------------5b7------------------|---------------------------------|
|-5------------------------5------|---------------------------------|
|------------------------------7--|7b9-----------7-------5-------4--|
|---------------------------------|---------------------------------|
|---------------------------------|---------------------------------|
|---------------------------------|---------------------------------|
|
| E   E   E    S S E   E   E   E     E   S S E   E   E   E   E   S S
|---------------------------------|---------------------------------|
|---------------------------------|---------------------------------|
|---------------------------------|---------------------------------|
|---------------------------------|---------------------------------|
|-2-------------------------------|---------------------------------|
|-0---0---0----0-0-0---0---0---0--|--0---0-0-0---0---0---0---0---0-0|
     PM.............................................................


  Gtr 3

  h               E   E   E   E    E   E   E   Q       E   Q      
|--------------------------------|-------------7------------------|
|-------------------------8------|---------8----------------------|
|-----------------7---9-------9--|-7---9---------------7---9------|
|--------------------------------|--------------------------------|
|--------------------------------|--------------------------------|
|--------------------------------|--------------------------------|
|
| Gtr 2
|
|+W                               +W                              
|--------------------------------|--------------------------------|
|--------------------------------|--------------------------------|
|(4)--~-~-~-~-~-~---~---~---~---~|(4)--~---~---~---~---~---~---~--|
|--------------------------------|--------------------------------|
|--------------------------------|--------------------------------|
|--------------------------------|--------------------------------|
|
| E   E   E   E   E   E   E   S S  E   E   E   S S E   E   E   E  
|--------------------------------|--------------------------------|
|--------------------------------|--------------------------------|
|--------------------------------|--------------------------------|
|--------------------------------|--------------------------------|
|--------------------------------|--------------------------------|
|-0---0---0---0---0---0---0---0-0|-0---0---0---0-0-0---0---0---0--|
 ...............................................................


  W                               +W                             
|--------------------------------|--------------------------------|
|--------------------------------|--------------------------------|
|-9------------------------------|(9)-----------------------------|
|--------------------------------|--------------------------------|
|--------------------------------|--------------------------------|
|--------------------------------|--------------------------------|
|
| E   E   E   E   E   E   E   E   +E   E   E   E   E   E   Q      
|--------------------------------|--------------------------------|
|-5-------8-------7-p-5-------5--|(5)------8-------7-p-5----------|
|-----7-------7-----------7------|-----7-------7-----------7------|
|--------------------------------|--------------------------------|
|--------------------------------|--------------------------------|
|--------------------------------|--------------------------------|
|
| E   E   E   E   E   E   E   e    E   E   E   E   E   E   E   e  
|--------------------------------|--------------------------------|
|--------------------------------|--------------------------------|
|-5---5---5---5---5---5---5------|-7---7---7---7---7---7---7------|
|-5---5---5---5---5---5---5------|-7---7---7---7---7---7---7------|
|-3---3---3---3---3---3---3------|-5---5---5---5---5---5---5------|
|--------------------------------|--------------------------------|


   Q       E   Q       E   E   E    Q       E    Q       Q       a  E  
|-------------17------14----------|------------------------------------|
|-15----------------------17--15--|-------------17------19------19b20--|
|---------16----------------------|14------16--------------------------|
|---------------------------------|------------------------------------|
|---------------------------------|------------------------------------|
|---------------------------------|------------------------------------|
|
|  Q       E   Q       E   E   E    Q       E    Q       Q       a  E  
|/10-------7--10-------7--10---7--|---------7--/12------14------14b15--|
|---------------------------------|10----------------------------------|
|---------------------------------|------------------------------------|
|---------------------------------|------------------------------------|
|---------------------------------|------------------------------------|
|---------------------------------|------------------------------------|
|
|  E   S S E   E   E   E   E   E    H                H              
|---------------------------------|------------------------------------|
|---------------------------------|------------------------------------|
|---------------------------------|-5----------------7-----------------|
|---------------------------------|-5----------------7-----------------|
|---------------------------------|-3----------------5-----------------|
|--0---0-0-0---0---0---0---0---0--|------------------------------------|
  PM............................


  +H.                      E   E    +H              +E   Q       a  E   
|---------------------------------|------------------------------------|
|(20)---------------------19--17--|(17)------------(17)-19------19b20--|
|---------------------------------|------------------------------------|
|---------------------------------|------------------------------------|
|---------------------------------|------------------------------------|
|---------------------------------|------------------------------------|
|
| +H.                      E   E    +H              +E   Q       a  E
|(15)---------------------14------|------------------------------------|
|---------------------------------|---------------------19------19b20--|
|-----------------------------16--|(16)------------(16)----------------|
|---------------------------------|------------------------------------|
|---------------------------------|------------------------------------|
|---------------------------------|------------------------------------|
|
|  E   E   E   E   E   E   E   E     E   S S E   E   E   S S E      E  
|---------------------------------|------------------------------------|
|---------------------------------|------------------------------------|
|---------------------------------|------------------------------------|
|---------------------------------|------------------------------------|
|--3---3---3---3---3---3---3---3--|------------------------------------|
|---------------------------------|--0---0-0-0---0---0---0-0-0------0--|
  PM...................................................................



  +H.                      E   E    +E   Q       Q       Q       a  E  
|-----------------------------19--|(19)-22-----------------------------|
|(20)---------------------19------|-------------20------19------19b20--|
|---------------------------------|------------------------------------|
|---------------------------------|------------------------------------|
|---------------------------------|------------------------------------|
|---------------------------------|------------------------------------|
|
| +H.                      E   E    +E   Q       Q       Q       a  E
|-----------------------------19--|(19)-22-----------------------------|
|(20)---------------------19------|-------------20------19------19b20--|
|---------------------------------|------------------------------------|
|---------------------------------|------------------------------------|
|---------------------------------|------------------------------------|
|---------------------------------|------------------------------------|
|
|  E   S S E   E   E   S S E   E     E   E   S S S S S S S S E      E   
|---------------------------------|------------------------------------|
|---------------------------------|------------------------------------|
|---------------------------------|------------------------------------|
|---------------------------------|--------------------------7------7--|
|---------------------------------|--------------------------5------5--|
|--2---2-2-2---2---2---2-2-2---2--|--3---3---5-5-5-5-3-3-3-3-----------|
 ...........................................................


  +H.                      E   E    +H              +E   Q       a  E
|---------------------------------|------------------------------------|
|(20)---------------------19--17--|(17)------------(17)-19------19b20--|
|---------------------------------|------------------------------------|
|---------------------------------|------------------------------------|
|---------------------------------|------------------------------------|
|---------------------------------|------------------------------------|
|
| +H.                      E   E    +H              +E   Q       a  E  
|---------------------------------|------------------------------------|
|(20)---------------------19------|---------------------19------19b20--|
|-----------------------------16--|(16)------------(16)----------------|
|---------------------------------|------------------------------------|
|---------------------------------|------------------------------------|
|---------------------------------|------------------------------------|
|
|  E   E   E   E   E   E   E   E     E   S S E   E   E   S S E     E  
|---------------------------------|------------------------------------|
|---------------------------------|------------------------------------|
|---------------------------------|------------------------------------|
|---------------------------------|------------------------------------|
|--3---3---3---3---3---3---3---3--|------------------------------------|
|---------------------------------|--0---0-0-0---0---0---0-0-0-----0---|
  PM...................................................................


 Gtr 2,3

  +H              +E   E   E   E    +E   Q       Q       Q       E  
|-----------------------------19--|(19)-22------19--------------19--|
|(20)------------(20)-19--20------|---------------------22----------|
|---------------------------------|---------------------------------|
|---------------------------------|---------------------------------|
|---------------------------------|---------------------------------|
|---------------------------------|---------------------------------|
|
|  E   S S E   E   E   S S E   E     E   S S E   E   E   E   E   E  
|---------------------------------|---------------------------------|
|---------------------------------|---------------------------------|
|---------------------------------|---------------------------------|
|---------------------------------|---------------------------------|
|---------------------------------|---------------------------------|
|--2---2-2-2---2---2---2-2-2---2--|--3---3-3-3---3---3---3---3---3--|
 .................................................................


  +W                                +W                             
|(19)-----------------------------|(19)-----------------------------|
|---------------------------------|---------------------------------|
|---------------------------------|---------------------------------|
|---------------------------------|---------------------------------|
|---------------------------------|---------------------------------|
|---------------------------------|---------------------------------|
|
|  E   E   E   E   E   E   E   E     E   E   E   E   E   E   E   E  
|---------------------------------|---------------------------------|
|---------------------------------|---------------------------------|
|---------------------------------|---------------------------------|
|--9-----------7-----------6------|--6-----------7-----------6------|
|--7-----------5-----------4------|--4-----------5-----------4------|
|------0---0-------0---0-------0--|------0---0-------0---0-------0--|
      PM....      PM....      PM        PM....      PM....      PM


                                                    Gtr 2

  +Q       E   h               e    h               S  S S  S  S  S S  S
|(19)----[19]\--------------------|-------------------------------------|
|--------[19]\--------------------|----------------------8h10h12p10p8h10|
|--------[19]\--------------------|-----------------9h11----------------|
|---------------------------------|-------------------------------------|
|---------------------------------|-------------------------------------|
|---------------------------------|-------------------------------------|
|
|  E   E   E   E   E   E   E   E    w
|---------------------------------|-------------------------------------|
|---------------------------------|-------------------------------------|
|---------------------------------|-------------------------------------|
|----------5-----------5-------4--|-------------------------------------|
|----------3-----------3-------2--|-------------------------------------|
|--0---0-------0---0-------0------|-------------------------------------|
  PM....      PM....      PM


  W                                 H.                     +E   E  
|--------------------------------|/19---------------------(19)-17--|
|12---~---~---~---~---~---~---~--|---------------------------------|
|--------------------------------|---------------------------------|
|--------------------------------|---------------------------------|
|--------------------------------|---------------------------------|
|--------------------------------|---------------------------------|
|
| E   E   E   E   E   E   E   E     E   S S E   E   E   E   E   E  
|--------------------------------|---------------------------------|
|--------------------------------|---------------------------------|
|--------------------------------|--------------4-------4-------4--|
|--------------------------------|---------------------------------|
|-2---2---2---2---2---2---2---2--|--2---2-2-2-------2-------2------|
|--------------------------------|---------------------------------|
 PM..........................................      PM      PM


  Q       E   Q       Q       a  E    +H.                     +E   E  
|-----------------------------------|---------------------------------|
|19------20--19------17------19b20--|(20)----------------------r\-----|
|-----------------------------------|-----------------------------16--|
|-----------------------------------|---------------------------------|
|-----------------------------------|---------------------------------|
|-----------------------------------|---------------------------------|
|
| E   E   E   S S E   E   E      S S   E   S S E   E   E   S S E   E  
|-----------------------------------|---------------------------------|
|-----------------------------------|---------------------------------|
|-----------------------------------|---------------------------------|
|-----------------1---1---1------1-1|--2---2-2-2---2---4---4-4-4---4--|
|-3---3---3---3-3-------------------|---------------------------------|
|-----------------------------------|---------------------------------|
 PM...................................................................


  Q.          Q.          E   E    Q.          Q.          E   E  
|19----------------------19--17--|19------------------------------|
|------------17------------------|------------17--------------19--|
|--------------------------------|------------------------16------|
|--------------------------------|--------------------------------|
|--------------------------------|--------------------------------|
|--------------------------------|--------------------------------|
|
| E   E   E   S S E   E   E   E    E   S S E   E   E   E   S S S S
|--------------------------------|--------------------------------|
|--------------------------------|--------------------------------|
|--------------------------------|--------------------------------|
|--------------------------------|--------------------------------|
|-3---3---3---3-3-3---3---3---3--|--------------------------------|
|--------------------------------|-2---2-2-2---2---3---3---3-3-3-3|
 .................................................................


  a  H.                      E   E    H.                     +Q    
|---------------------------17------|--------------------------------|
|19b20--------------------------20--|19---------------------(19)--\--|
|-----------------------------------|--------------------------------|
|-----------------------------------|--------------------------------|
|-----------------------------------|--------------------------------|
|-----------------------------------|--------------------------------|
|
|    H               H                H               H              
|-----------------------------------|--------------------------------|
|-----------------------------------|--------------------------------|
|-----------------------------------|--------------------------------|
|----5---------------6--------------|-7---------------8--------------|
|----3---------------4--------------|-5---------------6--------------|
|-----------------------------------|--------------------------------|


  Gtr 2,3

  W                                H.                     +E   E  
|--------------------------------|19-----------------------\------|
|--------------------------------|----------------------------20--|
|16------------------------------|--------------------------------|
|--------------------------------|--------------------------------|
|--------------------------------|--------------------------------|
|--------------------------------|--------------------------------|
|
| E   S S E   E   E   E   E   E    E   S S E   E   E   E   E   E  
|--------------------------------|--------------------------------|
|--------------------------------|--------------------------------|
|--------------------------------|--------------------------------|
|-9-------9---9---9---9---9---9--|-7-------7---7---7---7---7---7--|
|-7---7-7-7---7---7---7---7---7--|-5---5-5-5---5---5---5---5---5--|
|--------------------------------|--------------------------------|
     PM..                             PM..


  Q       E   Q       Q       a  E    +H.                     +E   E  
|--------------------17------17b19--|(19)--------------------(19)-----|
|19------19--20---------------------|-----------------------------17--|
|-----------------------------------|---------------------------------|
|-----------------------------------|---------------------------------|
|-----------------------------------|---------------------------------|
|-----------------------------------|---------------------------------|
|
| Q       E   E   e   E   e      E     E   S S E   S S E   S S Q      
|-----------------------------------|---------------------------------|
|-----------------------------------|---------------------------------|
|-----------------------------------|---------------------------------|
|-5-------5---7-------8----------9--|--9-------5-------7--------------|
|-3-------3---5-------6----------7--|--7---3-3-3---5-5-5-------5------|
|-----------------------------------|----------------------3-3-3------|
                                          PM..    PM..    PM..


  Gtr 3

  Q.          Q.          E   E    Q.          Q.          E   E  
|19----------------------19--17--|19----------------------19--17--|
|------------17------------------|------------17------------------|
|--------------------------------|--------------------------------|
|--------------------------------|--------------------------------|
|--------------------------------|--------------------------------|
|--------------------------------|--------------------------------|
|
| Gtr 2
|
| Q.          Q.          E   E    Q.          Q.          E   E  
|--------------------------------|--------------------------------|
|20----------17----------20--19--|20----------17----------20--19--|
|--------------------------------|--------------------------------|
|--------------------------------|--------------------------------|
|--------------------------------|--------------------------------|
|--------------------------------|--------------------------------|
|
| E   S S E   Q.          Q        E   S S E   Q.          Q      
|--------------------------------|--------------------------------|
|--------------------------------|--------------------------------|
|--------------------------------|--------------------------------|
|--------------------------------|--------------------------------|
|-7-------7---7-----------7------|-9-------9---9-----------9------|
|-5---5-5-5---5-----------5------|-7---7-7-7---7-----------7------|
     PM..                             PM..


  Q.          Q.          E   E    Q.          H              +E  
|19----------------------19--17--|19----------17-------------(17)-|
|------------17------------------|--------------------------------|
|--------------------------------|--------------------------------|
|--------------------------------|--------------------------------|
|--------------------------------|--------------------------------|
|--------------------------------|--------------------------------|
|
| Q.          Q.          E   E    Q.          H              +E  
|--------------------------------|--------------------------------|
|20----------17----------20--19--|20----------19-------------(19)-|
|--------------------------------|--------------------------------|
|--------------------------------|--------------------------------|
|--------------------------------|--------------------------------|
|--------------------------------|--------------------------------|
|
| E   S S E   Q.          Q        E   S S E   S S E   E   S S S S
|--------------------------------|--------------------------------|
|--------------------------------|--------------------------------|
|--------------------------------|--------------------------------|
|--------------------------------|-7-------7-------8---8----------|
|10------10--10----------10------|-5---5-5-5---5-5-6---6---6-6-6-6|
|-8---8-8-8---8-----------8------|--------------------------------|
     PM..                             PM..    PM..        PM......


     E   E   E   E   E   E   E   E    +E   E   E   E   E   E   E   E 
|-----------------------------------|---------------------------------|
|----5-------8-------7-p-5-------5--|-(5)------8-------7-p-5-------5--|
|--------7-------7-----------7------|------7-------7-----------7------|
|-----------------------------------|---------------------------------|
|-----------------------------------|---------------------------------|
|-----------------------------------|---------------------------------|
|
|
| a  W                                +W                              
|-----------------------------------|---------------------------------|
|15b17------------------------------|(17)--~---~---~---~---~---~---~--|
|-----------------------------------|---------------------------------|
|-----------------------------------|---------------------------------|
|-----------------------------------|---------------------------------|
|-----------------------------------|---------------------------------|
|
|    E   S S E   S S E   S S E   S S   E   S S E   S S E   S S E   S S
|-----------------------------------|---------------------------------|
|-----------------------------------|---------------------------------|
|-----------------------------------|---------------------------------|
|-----------------------------------|---------------------------------|
|----2------------------------------|--4------------------------------|
|----0---0-0-0---0-0-0---0-0-0---0-0|--2---2-2-2---2-2-2---2-2-2---2-2|
        PM..........................      PM..........................


  +E   E   E   E   E   E   E   E    +E   E   E   E   E   E   Q     
|---------------------------------|---------------------------------|
|-(5)------8-------7-p-5-------5--|-(5)------8-------7-p-5----------|
|------7-------7-----------7------|------7-------7-----------7------|
|---------------------------------|---------------------------------|
|---------------------------------|---------------------------------|
|---------------------------------|---------------------------------|
|
|
| +W                                +E  +E   h.
|---------------------------------|---------------------------------|
|(17)------~-------~-------~------|(17)r-\--------------------------|
|---------------------------------|---------------------------------|
|---------------------------------|---------------------------------|
|---------------------------------|---------------------------------|
|---------------------------------|---------------------------------|
|
|  E   S S E   S S E   S S E   S S   E   S S E   S S E   S S E   S S
|---------------------------------|---------------------------------|
|---------------------------------|---------------------------------|
|---------------------------------|---------------------------------|
|---------------------------------|---------------------------------|
|--5------------------------------|--7------------------------------|
|--3---3-3-3---3-3-3---3-3-3---3-3|--5---5-5-5---5-5-5---5-5-5---5-5|
      PM..........................      PM..........................


  Gtr 2,3

  E   E   E   E   E   E   E   E   +E   E   E   E   E   E   E   E  
|--------------------------------|--------------------------------|
|-5-------8-------7-p-5-------5--|(5)------8-------7-p-5-------5--|
|-----7-------7-----------7------|-----7-------7-----------7------|
|--------------------------------|--------------------------------|
|--------------------------------|--------------------------------|
|--------------------------------|--------------------------------|
|
| E   S S E   S S E   S S E   S S  E   S S E   S S E   S S E   S S
|--------------------------------|--------------------------------|
|--------------------------------|--------------------------------|
|--------------------------------|--------------------------------|
|--------------------------------|--------------------------------|
|-2------------------------------|-4------------------------------|
|-0---0-0-0---0-0-0---0-0-0---0-0|-2---2-2-2---2-2-2---2-2-2---2-2|
     PM..........................     PM..........................


 +E   E   E   E   E   E   E   E   +E   E   E   E   E   E   Q      
|--------------------------------|--------------------------------|
|(5)------8-------7-p-5-------5--|(5)------8-------7-p-5----------|
|-----7-------7-----------7------|-----7-------7-----------7------|
|--------------------------------|--------------------------------|
|--------------------------------|--------------------------------|
|--------------------------------|--------------------------------|
|
| E   S S E   S S E   S S E   S S  E   S S E   S S E   S S E   S S
|--------------------------------|--------------------------------|
|--------------------------------|--------------------------------|
|--------------------------------|--------------------------------|
|--------------------------------|--------------------------------|
|-5------------------------------|-7------------------------------|
|-3---3-3-3---3-3-3---3-3-3---3-3|-5---5-5-5---5-5-5---5-5-5---5-5|
     PM..........................     PM..........................


   Gtr 4

   E   E   E   E   Q.          E    E   E   E   Q       E   E   E  
|---------------------------------|--------------------------------|
|------------------0--------------|-------------0------------------|
|--------------0---------------0--|---------0-----------0----------|
|----------2----------------------|-----2-------------------2------|
|------2--------------------------|-2---------------------------2--|
|--0------------------------------|--------------------------------|
|
| +E  +E   h.                       w                              
|---------------------------------|--------------------------------|
|---------------------------------|--------------------------------|
|-(7)--\--------------------------|--------------------------------|
|---------------------------------|--------------------------------|
|---------------------------------|--------------------------------|
|---------------------------------|--------------------------------|
|
|  W*                              +W                              
|---------------------------------|--------------------------------|
|---------------------------------|--------------------------------|
|---------------------------------|--------------------------------|
|\(2)-----------------------------|(2)-----------------------------|
|\(2)-----------------------------|(2)-----------------------------|
|\(0)-----------------------------|(0)-----------------------------|


  E   E   E   E   E   E   E   E    E   E   E   E   E   E   E   E 
|-----------------0-h-2---2-h-3--|--------------------------------|
|--------------------------------|-----------------3-------1------|
|-------------0------------------|-------------0-------0-------0--|
|---------2----------------------|---------2----------------------|
|-----2--------------------------|-----2--------------------------|
|-0------------------------------|-0------------------------------|
|
|+W                               +W                              
|--------------------------------|--------------------------------|
|--------------------------------|--------------------------------|
|--------------------------------|--------------------------------|
|(2)-----------------------------|(2)-----------------------------|
|(2)-----------------------------|(2)-----------------------------|
|(0)-----------------------------|(0)-----------------------------|


  E   E   E   E   E   E   E   E   +E   E   E   Q       E   E   E  
|--------------------------------|--------------------------------|
|--------------------------------|---------4---5---------------5--|
|---------0-----------0---2---4--|(4)--0---------------0---4------|
|-----2-------2---4--------------|--------------------------------|
|-2------------------------------|--------------------------------|
|--------------------------------|--------------------------------|
|
|+W                               +W                              
|--------------------------------|--------------------------------|
|--------------------------------|--------------------------------|
|--------------------------------|--------------------------------|
|(2)-----------------------------|(2)-----------------------------|
|(2)-----------------------------|(2)-----------------------------|
|(0)-----------------------------|(0)-----------------------------|


 a Q       E   E   Q       E   E    S  S E   E   E   E   E   Q      
|---------------------------------|---------------------------------|
|5/7-------5-h-7---8-------7---8--|-8h10p8---7----------------------|
|---------------------------------|--------------9---8---6----------|
|---------------------------------|--------------------------9------|
|---------------------------------|---------------------------------|
|---------------------------------|---------------------------------|
|
|  Gtr 2
|
|  w                                h                e   Q       E  
|---------------------------------|---------------------------------|
|---------------------------------|---------------------------------|
|---------------------------------|---------------------------------|
|---------------------------------|----------------------5-------7--|
|---------------------------------|---------------------------------|
|---------------------------------|---------------------------------|
|
| +W                               +W                             
|---------------------------------|---------------------------------|
|---------------------------------|---------------------------------|
|---------------------------------|---------------------------------|
|-(2)-----------------------------|(2)------------------------------|
|-(2)-----------------------------|(2)------------------------------|
|-(0)-----------------------------|(0)------------------------------|


 Gtr 4 repeats 3 more times
 Gtr 2

 a H.                     +E   E   a H.                     +E   E  
|---------------------------------|---------------------------------|
|---------------------------------|---------------------------------|
|------------------------------5--|------------------------------5--|
|7b9----------------------(9)-----|7b9----------------------(9)-----|
|---------------------------------|---------------------------------|
|---------------------------------|---------------------------------|


 a H.                     +E   E   a H.                      E   E  
|---------------------------------|---------------------------------|
|---------------------------------|---------------------------------|
|------------------------------5--|--------------------------5---4--|
|7b9----------------------(9)-----|7b9------------------------------|
|---------------------------------|---------------------------------|
|---------------------------------|---------------------------------|


  Q.         a H               E    Q.         a H               E  
|---------------------------------|---------------------------------|
|------------7/8---------------7--|------------7/8---------------8--|
|-5-------------------------------|-5-------------------------------|
|---------------------------------|---------------------------------|
|---------------------------------|---------------------------------|
|---------------------------------|---------------------------------|


  H              +E   E   E   E    H              +E   Q       E  
|--------------------------------|--------------------------------|
|-7--------------(7)--8---7---5--|--------------------------------|
|--------------------------------|--------------------------------|
|--------------------------------|-7--------------(7)--5-------7--|
|--------------------------------|--------------------------------|
|--------------------------------|--------------------------------|


 Gtr 2,3

 a H.                     +E   E   a H.                     +E   E  
|---------------------------------|---------------------------------|
|---------------------------------|------------------------------7--|
|------------------------------5--|---------------------------------|
|7b9----------------------(9)-----|7b9----------------------(9)-----|
|---------------------------------|---------------------------------|
|---------------------------------|---------------------------------|
|
|  Gtr 1
|
|  W                                +W                             
|---------------------------------|---------------------------------|
|---------------------------------|---------------------------------|
|---------------------------------|---------------------------------|
|--4------------------------------|-(4)-----------------------------|
|--2------------------------------|-(2)-----------------------------|
|---------------------------------|---------------------------------|


 a H.                     +E   E   a H.                      E   E  
|---------------------------------|---------------------------------|
|7b8----------------------(8)--7--|---------------------------------|
|---------------------------------|5b7-----------------------5---4--|
|---------------------------------|---------------------------------|
|---------------------------------|---------------------------------|
|---------------------------------|---------------------------------|
|
|  W                                +W                              
|---------------------------------|---------------------------------|
|---------------------------------|---------------------------------|
|---------------------------------|---------------------------------|
|--4------------------------------|-(4)-----------------------------|
|--2------------------------------|-(2)-----------------------------|
|---------------------------------|---------------------------------|


  Q.         a H               E    Q.         a H               E  
|---------------------------------|---------------------------------|
|------------7b8---------------7--|------------7/8---------------8--|
|-5-------------------------------|-5-------------------------------|
|---------------------------------|---------------------------------|
|---------------------------------|---------------------------------|
|---------------------------------|---------------------------------|
|
| W                                +W                               
|---------------------------------|---------------------------------|
|---------------------------------|---------------------------------|
|---------------------------------|---------------------------------|
|-5-------------------------------|(5)------------------------------|
|-3-------------------------------|(3)------------------------------|
|---------------------------------|---------------------------------|


  H              +E   E   E   E    H              a  H              
|--------------------------------|----------------------------------|
|-7--------------(7)--8---7---5--|----------------8b10--------------|
|--------------------------------|-7--------------------------------|
|--------------------------------|----------------------------------|
|--------------------------------|----------------------------------|
|--------------------------------|----------------------------------|
|
| W                                H                 H              
|--------------------------------|----------------------------------|
|--------------------------------|----------------------------------|
|--------------------------------|----------------------------------|
|-5------------------------------|-7-----------------8--------------|
|-3------------------------------|-5-----------------6--------------|
|--------------------------------|----------------------------------|


  E   E   E   E   E   E   E   E   +E   E   E   E   E   E   E   E
|--------------------------------|--------------------------------|
|-5-------8-------7-p-5-------5--|(5)------8-------7-p-5-------5--|
|-----7-------7-----------7------|-----7-------7-----------7------|
|--------------------------------|--------------------------------|
|--------------------------------|--------------------------------|
|--------------------------------|--------------------------------|
|
| W                               +W
|--------------------------------|--------------------------------|
|--------------------------------|--------------------------------|
|--------------------------------|--------------------------------|
|-4------------------------------|(4)-----------------------------|
|-2------------------------------|(2)-----------------------------|
|--------------------------------|--------------------------------|


 +E   E   E   E   E   E   E   E   +E   E   E   E   E   E   E   E 
|--------------------------------|-------------------------5------|
|(5)------8-------7-p-5-------5--|(5)------8-------7-h-8-------5--|
|-----7-------7-----------7------|-----7-------7------------------|
|--------------------------------|--------------------------------|
|--------------------------------|--------------------------------|
|--------------------------------|--------------------------------|
|
| W                               +W
|--------------------------------|--------------------------------|
|--------------------------------|--------------------------------|
|--------------------------------|--------------------------------|
|-4------------------------------|(4)-----------------------------|
|-2------------------------------|(2)-----------------------------|
|--------------------------------|--------------------------------|


 +E   E   E   E   E   E   E   E   +E   E   E   E   E   E   E   E  
|--------------------------------|--------------------------------|
|(5)------8-------7-p-5-------5--|(5)------8-------7-p-5-------5--|
|-----7-------7-----------7------|-----7-------7-----------7------|
|--------------------------------|--------------------------------|
|--------------------------------|--------------------------------|
|--------------------------------|--------------------------------|
|
| W                               +W
|--------------------------------|--------------------------------|
|--------------------------------|--------------------------------|
|--------------------------------|--------------------------------|
|-5------------------------------|(5)-----------------------------|
|-3------------------------------|(3)-----------------------------|
|--------------------------------|--------------------------------|


 +E   E   E   E   E   E   E   E   +E   E   E   E   E   E   Q   
|--------------------------------|-------------------------5------|
|(5)------8-------7-p-5-------5--|(5)------8-------7-h-8----------|
|-----7-------7-----------7------|-----7-------7------------------|
|--------------------------------|--------------------------------|
|--------------------------------|--------------------------------|
|--------------------------------|--------------------------------|
|
| W                                H             H                
|--------------------------------|--------------------------------|
|--------------------------------|--------------------------------|
|--------------------------------|--------------------------------|
|-5------------------------------|-7-------------8----------------|
|-3------------------------------|-5-------------6----------------|
|--------------------------------|--------------------------------|


  Gtr 4 stops
  Gtr 2

  Q.         a Q.          E   E   a Q.          Q       Q       E  
|------------5b7------------------|---------------------------------|
|-5------------------------5------|---------------------------------|
|------------------------------7--|7b9-----------7-------5-------4--|
|---------------------------------|---------------------------------|
|---------------------------------|---------------------------------|
|---------------------------------|---------------------------------|
|
| E   S S E    E   E   E   E   E     E   S S E   E   E   E   E   E  
|---------------------------------|---------------------------------|
|---------------------------------|---------------------------------|
|---------------------------------|---------------------------------|
|---------------------------------|---------------------------------|
|-2-------------------------------|---------------------------------|
|-0---0-0-0----0---0---0---0---0--|--0---0-0-0---0---0---0---0---0--|
     PM.............................................................


  Gtr 3

  h               E   E   E   E    E   E   E   Q       E   Q      
|--------------------------------|-------------7------------------|
|-------------------------8------|---------8----------------------|
|-----------------7---9-------9--|-7---9---------------7---9------|
|--------------------------------|--------------------------------|
|--------------------------------|--------------------------------|
|--------------------------------|--------------------------------|
|
| Gtr 2
|
|+W                               +W                              
|--------------------------------|--------------------------------|
|--------------------------------|--------------------------------|
|(4)~-~-~-~-~-~-~---~---~---~---~|(4)--~---~---~---~---~---~---~--|
|--------------------------------|--------------------------------|
|--------------------------------|--------------------------------|
|--------------------------------|--------------------------------|
|
| E   S S E   E   E   E   E   E    E   E   E   S S E   E   E   E 
|--------------------------------|--------------------------------|
|--------------------------------|--------------------------------|
|--------------------------------|--------------------------------|
|--------------------------------|--------------------------------|
|--------------------------------|--------------------------------|
|-0---0-0-0---0---0---0---0---0--|-0---0---0---0-0-0---0---0---0--|
 ...............................................................


  W                               +W                              
|--------------------------------|--------------------------------|
|--------------------------------|--------------------------------|
|-9------------------------------|(9)-----------------------------|
|--------------------------------|--------------------------------|
|--------------------------------|--------------------------------|
|--------------------------------|--------------------------------|
|
| E   E   E   E   E   E   E   E   +E   E   E   E   E   E   Q      
|--------------------------------|--------------------------------|
|-5-------8-------7-p-5-------5--|(5)------8-------7-p-5----------|
|-----7-------7-----------7------|-----7-------7-----------7------|
|--------------------------------|--------------------------------|
|--------------------------------|--------------------------------|
|--------------------------------|--------------------------------|
|
| E   S S E   E   E   E   E   E    E   E   E   E   E   E   E   S S
|--------------------------------|--------------------------------|
|--------------------------------|--------------------------------|
|--------------------------------|--------------------------------|
|-5------------------------------|-7-------5-------4---5---7------|
|-3---3-3-3---3---3---3---3---3--|-5---5-------5------------------|
|--------------------------------|-----------------------------0-0|
     PM........................       PM      PM              PM..


   Q       E   Q       E   E   E    Q       E   Q      +E   q      
|-------------17------14----------|--------------------------------|
|-15----------------------17--15--|--------------------------------|
|---------16----------------------|14------16--14-------\----------|
|---------------------------------|--------------------------------|
|---------------------------------|--------------------------------|
|---------------------------------|--------------------------------|
|
|
|  Q       E   Q       E   E   E    Q       E   Q      +E   q      
|/10-------7--10-------7--10---7--|---------7----------------------|
|---------------------------------|10----------10-------\----------|
|---------------------------------|--------------------------------|
|---------------------------------|--------------------------------|
|---------------------------------|--------------------------------|
|---------------------------------|--------------------------------|
|
|  E   S S E   E   E   E   E   E    H               H              
|---------------------------------|--------------------------------|
|---------------------------------|--------------------------------|
|---------------------------------|--------------------------------|
|---------------------------------|-5---------------7--------------|
|---------------------------------|-3---------------5--------------|
|--0---0-0-0---0---0---0---0---0--|--------------------------------|
 ...............................


  Q.         a Q.          E   E   a Q.          Q       Q       E  
|------------5b7------------------|---------------------------------|
|-5------------------------5------|---------------------------------|
|------------------------------7--|7b9-----------7-------5-------4--|
|---------------------------------|---------------------------------|
|---------------------------------|---------------------------------|
|---------------------------------|---------------------------------|
|
| E   E   E    E   E   E   E   E     E   S S E   E   E   E   E   S S
|---------------------------------|---------------------------------|
|---------------------------------|---------------------------------|
|---------------------------------|---------------------------------|
|---------------------------------|---------------------------------|
|---------------------------------|---------------------------------|
|-0---0---0----0---0---0---0---0--|--0---0-0-0---0---0---0---0---0-0|
 PM.................................................................


  Gtr 3

  h               E   E   E   E    E   E   E   Q       E   Q      
|--------------------------------|-------------7------------------|
|-------------------------8------|---------8----------------------|
|-----------------7---9-------9--|-7---9---------------7---9------|
|--------------------------------|--------------------------------|
|--------------------------------|--------------------------------|
|--------------------------------|--------------------------------|
|
| Gtr 2
|
|+W                               +W                              
|--------------------------------|--------------------------------|
|--------------------------------|--------------------------------|
|(4)~-~-~-~-~-~-~---~---~---~---~|(4)--~---~---~---~---~---~---~--|
|--------------------------------|--------------------------------|
|--------------------------------|--------------------------------|
|--------------------------------|--------------------------------|
|
| E   E   E   E   E   E   E   S S  E   E   E   S S E   E   E   E  
|--------------------------------|--------------------------------|
|--------------------------------|--------------------------------|
|--------------------------------|--------------------------------|
|--------------------------------|--------------------------------|
|--------------------------------|--------------------------------|
|-0---0---0---0---0---0---0---0-0|-0---0---0---0-0-0---0---0---0--|
 ...............................................................


  W                               +W                              
|--------------------------------|--------------------------------|
|--------------------------------|--------------------------------|
|-9------------------------------|(9)-----------------------------|
|--------------------------------|--------------------------------|
|--------------------------------|--------------------------------|
|--------------------------------|--------------------------------|
|
| E   E   E   E   E   E   E   E   +E   E   E   E   E   E   Q      
|--------------------------------|--------------------------------|
|-5-------8-------7-p-5-------5--|(5)------8-------7-p-5----------|
|-----7-------7-----------7------|-----7-------7-----------7------|
|--------------------------------|--------------------------------|
|--------------------------------|--------------------------------|
|--------------------------------|--------------------------------|
|
| E   E   E   E   E   E   E   e    E   E   E   E   E   E   E   e  
|--------------------------------|--------------------------------|
|--------------------------------|--------------------------------|
|-5---5---5---5---5---5---5------|-7---7---7---7---7---7---7------|
|-5---5---5---5---5---5---5------|-7---7---7---7---7---7---7------|
|-3---3---3---3---3---3---3------|-5---5---5---5---5---5---5------|
|--------------------------------|--------------------------------|


   Q       E   Q       E   E   E    Q       E    Q       Q       a  E
|-------------17------14----------|------------------------------------|
|-15----------------------17--15--|-------------17------19------19b20--|
|---------16----------------------|14------16--------------------------|
|---------------------------------|------------------------------------|
|---------------------------------|------------------------------------|
|---------------------------------|------------------------------------|
|
|  Q       E   Q       E   E   E    Q       E    Q       Q       a  E
|/10-------7--10-------7--10---7--|---------7--/12------14------14b15--|
|---------------------------------|10----------------------------------|
|---------------------------------|------------------------------------|
|---------------------------------|------------------------------------|
|---------------------------------|------------------------------------|
|---------------------------------|------------------------------------|
|
|  E   S S E   E   E   E   E   E    H                H
|---------------------------------|------------------------------------|
|---------------------------------|------------------------------------|
|---------------------------------|------------------------------------|
|---------------------------------|-5----------------7-----------------|
|---------------------------------|-3----------------5-----------------|
|--0---0-0-0---0---0---0---0---0--|------------------------------------|
  PM............................


  +H.                      E   E    +H              +E   Q       a  E
|---------------------------------|------------------------------------|
|(20)---------------------19--17--|(17)------------(17)-19------19b20--|
|---------------------------------|------------------------------------|
|---------------------------------|------------------------------------|
|---------------------------------|------------------------------------|
|---------------------------------|------------------------------------|
|
| +H.                      E   E    +H              +E   Q       a  E
|(15)---------------------14------|------------------------------------|
|---------------------------------|---------------------19------19b20--|
|-----------------------------16--|(16)------------(16)----------------|
|---------------------------------|------------------------------------|
|---------------------------------|------------------------------------|
|---------------------------------|------------------------------------|
|
|  E   E   E   E   E   E   E   E     E   S S E   E   E   E   E      E
|---------------------------------|------------------------------------|
|---------------------------------|------------------------------------|
|---------------------------------|------------------------------------|
|--5------------------------------|------------------------------------|
|--3---3---3---3---3---3---3---3--|------------------------------------|
|---------------------------------|--0---0-0-0---0---0---0---0------0--|
      PM...............................................................


  +H.                      E   E    +E   Q       Q       Q       a  E
|-----------------------------19--|(19)-22-----------------------------|
|(20)---------------------19------|-------------20------19------19b20--|
|---------------------------------|------------------------------------|
|---------------------------------|------------------------------------|
|---------------------------------|------------------------------------|
|---------------------------------|------------------------------------|
|
| +H.                      E   E    +E   Q       Q       Q       a  E
|-----------------------------19--|(19)-22-----------------------------|
|(20)---------------------19------|-------------20------19------19b20--|
|---------------------------------|------------------------------------|
|---------------------------------|------------------------------------|
|---------------------------------|------------------------------------|
|---------------------------------|------------------------------------|
|
|  E   S S E   E   E   E   E   E     E   E   S S S S S S S S E      E   
|---------------------------------|-----------------------------------|
|---------------------------------|-----------------------------------|
|---------------------------------|-----------------------------------|
|---------------------------------|--------------------------7------7-|
|---------------------------------|--------------------------5------5-|
|--2---2-2-2---2---2---2---2---2--|--3---3---5-5-5-5-3-3-3-3----------|
 ...........................................................


  +H.                      E   E    +H              +E   Q       a  E
|---------------------------------|------------------------------------|
|(20)---------------------19--17--|(17)------------(17)-19------19b20--|
|---------------------------------|------------------------------------|
|---------------------------------|------------------------------------|
|---------------------------------|------------------------------------|
|---------------------------------|------------------------------------|
|
| +H.                      E   E    +H              +E   Q       a  E
|---------------------------------|------------------------------------|
|(20)---------------------19------|---------------------19------19b20--|
|-----------------------------16--|(16)------------(16)----------------|
|---------------------------------|------------------------------------|
|---------------------------------|------------------------------------|
|---------------------------------|------------------------------------|
|
|  E   S S E   E   E   E   E   E     E   S S E   E   E   E   E      E  
|---------------------------------|------------------------------------|
|---------------------------------|------------------------------------|
|---------------------------------|------------------------------------|
|--5-------5---5---5---5---5---5--|------------------------------------|
|--3---3-3-3---3---3---3---3---3--|--2---------------------------------|
|---------------------------------|--0---0-0-0---0---0---0---0------0--|
      PM..                              PM...........................


   Gtr 2,3

  +H              +E   E   E   E    +E   Q       Q       Q       E  
|-----------------------------19--|(19)-22------19--------------19--|
|(20)------------(20)-19--20------|---------------------22----------|
|---------------------------------|---------------------------------|
|---------------------------------|---------------------------------|
|---------------------------------|---------------------------------|
|---------------------------------|---------------------------------|
|
|  E   S S E   E   E   E   E   E     E   E   E   E   E   E   E   E  
|---------------------------------|---------------------------------|
|---------------------------------|---------------------------------|
|---------------------------------|---------------------------------|
|---------------------------------|---------------------------------|
|--4------------------------------|--5------------------------------|
|--2---2-2-2---2---2---2---2---2--|--3---3---3---3---3---3---3---3--|
      PM........................        PM........................


  +W                                +W                              
|(19)-----------------------------|(19)-----------------------------|
|---------------------------------|---------------------------------|
|---------------------------------|---------------------------------|
|---------------------------------|---------------------------------|
|---------------------------------|---------------------------------|
|---------------------------------|---------------------------------|
|
|  E   E   E   E   E   E   E   E     E   E   E   E   E   E   E   E  
|---------------------------------|---------------------------------|
|---------------------------------|---------------------------------|
|---------------------------------|---------------------------------|
|--9-----------7-----------6------|--6-----------7-----------6------|
|--7-----------5-----------4------|--4-----------5-----------4------|
|------0---0-------0---0-------0--|------0---0-------0---0-------0--|
      PM....      PM....      PM        PM....      PM....      PM..


                                                    Gtr 2

  +Q       E   h               e    h               S  S S  S  S  S S  S
|(19)----[19]\--------------------|-------------------------------------|
|--------[19]\--------------------|----------------------8h10h12p10p8h10|
|--------[19]\--------------------|-----------------9h11----------------|
|---------------------------------|-------------------------------------|
|---------------------------------|-------------------------------------|
|---------------------------------|-------------------------------------|
|
|  E   E   E   E   E   E   E   E    W
|---------------------------------|-------------------------------------|
|---------------------------------|-------------------------------------|
|---------------------------------|-------------------------------------|
|----------5-----------5-------4--|-------------------------------------|
|----------3-----------3-------2--|-------------------------------------|
|--0---0-------0---0-------0------|-------------------------------------|
 ......       PM....      PM


    W                                 H.                     +E   E  
||---------------------------------|/19---------------------(19)-17--|
||-12---~---~---~---~---~---~---~--|---------------------------------|
||o--------------------------------|---------------------------------|
||o--------------------------------|---------------------------------|
||---------------------------------|---------------------------------|
||---------------------------------|---------------------------------|
||
||  E   E   E   E   E   E   E   E     E   S S E   E   E   E   E   E  
||---------------------------------|---------------------------------|
||---------------------------------|---------------------------------|
||o--------------------------------|--------------4-------4-------4--|
||o--------------------------------|---------------------------------|
||--2---2---2---2---2---2---2---2--|--2---2-2-2-------2-------2------|
||---------------------------------|---------------------------------|
   PM..........................................      PM      PM


  Q       E   Q       Q       a  E     H.                     +E   E  
|-----------------------------------|---------------------------------|
|19------20--19------17------19b20--|(20)----------------------r\-----|
|-----------------------------------|-----------------------------16--|
|-----------------------------------|---------------------------------|
|-----------------------------------|---------------------------------|
|-----------------------------------|---------------------------------|
|
| E   E   E   S S E   E   E      S S   E   S S E   E   E   S S E   E  
|-----------------------------------|---------------------------------|
|-----------------------------------|---------------------------------|
|-----------------------------------|---------------------------------|
|-----------------1---1---1------1-1|--2---2-2-2---2---4---4-4-4---4--|
|-3---3---3---3-3-------------------|---------------------------------|
|-----------------------------------|---------------------------------|
 PM...................................................................


  Q.          Q.          E   E    Q.          Q.          E   E  
|19----------------------19--17--|19------------------------------|
|------------17------------------|------------17--------------19--|
|--------------------------------|------------------------16------|
|--------------------------------|--------------------------------|
|--------------------------------|--------------------------------|
|--------------------------------|--------------------------------|
|
| E   E   E   S S E   E   E   E    E   S S E   E   E   E   S S S S
|--------------------------------|--------------------------------|
|--------------------------------|--------------------------------|
|--------------------------------|--------------------------------|
|--------------------------------|--------------------------------|
|-3---3---3---3-3-3---3---3---3--|--------------------------------|
|--------------------------------|-2---2-2-2---2---3---3---3-3-3-3|
 .................................................................


  a  H.                      E   E    H.                     +E  +E  
|---------------------------17------|--------------------------------|
|19b20--------------------------20--|19---------------------(19)--\--|
|-----------------------------------|--------------------------------|
|-----------------------------------|--------------------------------|
|-----------------------------------|--------------------------------|
|-----------------------------------|--------------------------------|
|
|    H               H                H               H
|-----------------------------------|--------------------------------|
|-----------------------------------|--------------------------------|
|-----------------------------------|--------------------------------|
|----5---------------6--------------|-7---------------8--------------|
|----3---------------4--------------|-5---------------6--------------|
|-----------------------------------|--------------------------------|


  Gtr 2,3

  W                                H.                     +E   E  
|--------------------------------|19-----------------------\------|
|--------------------------------|----------------------------20--|
|16------------------------------|--------------------------------|
|--------------------------------|--------------------------------|
|--------------------------------|--------------------------------|
|--------------------------------|--------------------------------|
|
| E   S S E   E   E   E   E  E     E   S S E   E   E   E   E   E  
|--------------------------------|--------------------------------|
|--------------------------------|--------------------------------|
|--------------------------------|--------------------------------|
|-9-------9---9---9---9---9---9--|-7-------7---7---7---7---7---7--|
|-7---7-7-7---7---7---7---7---7--|-5---5-5-5---5---5---5---5---5--|
|--------------------------------|--------------------------------|
     PM..                             PM..


  Q       E   Q       Q       a  E    +H.                     +E   E  
|--------------------17------17b19--|(19)--------------------(19)-----|
|19------19--20---------------------|-----------------------------17--|
|-----------------------------------|---------------------------------|
|-----------------------------------|---------------------------------|
|-----------------------------------|---------------------------------|
|-----------------------------------|---------------------------------|
|
| Q       E   E   e   E   e      E     E   S S E   S S E   S S Q      
|-----------------------------------|---------------------------------|
|-----------------------------------|---------------------------------|
|-----------------------------------|---------------------------------|
|-5-------5---7-------8----------9--|--9-------5-------7--------------|
|-3-------3---5-------6----------7--|--7---3-3-3---5-5-5-------5------|
|-----------------------------------|----------------------3-3-3------|
                                          PM..    PM..    PM..


  Gtr 3

  Q.          Q.          E   E    Q.          Q.          E   E  
|19----------------------19--17--|19----------------------19--17--|
|------------17------------------|------------17------------------|
|--------------------------------|--------------------------------|
|--------------------------------|--------------------------------|
|--------------------------------|--------------------------------|
|--------------------------------|--------------------------------|
|
| Gtr 2
|
| Q.          Q.          E   E    Q.          Q.          E   E  
|--------------------------------|--------------------------------|
|20----------17----------20--19--|20----------17----------20--19--|
|--------------------------------|--------------------------------|
|--------------------------------|--------------------------------|
|--------------------------------|--------------------------------|
|--------------------------------|--------------------------------|
|
| E   S S E   Q.          Q        E   S S E   Q.          Q      
|--------------------------------|--------------------------------|
|--------------------------------|--------------------------------|
|--------------------------------|--------------------------------|
|--------------------------------|--------------------------------|
|-7-------7---7-----------7------|-9-------9---9-----------9------|
|-5---5-5-5---5-----------5------|-7---7-7-7---7-----------7------|
     PM..                             PM..


  Q.          Q.          E   E    Q.          H              +E  
|19----------------------19--17--|19----------17-------------(17)--||
|------------17------------------|---------------------------------||
|--------------------------------|--------------------------------o||
|--------------------------------|--------------------------------o||
|--------------------------------|---------------------------------||
|--------------------------------|---------------------------------||
|
| Q.          Q.          E   E    Q.          H              +E  
|--------------------------------|---------------------------------||
|20----------17----------20--19--|20----------19-------------(19)--||
|--------------------------------|--------------------------------o||
|--------------------------------|--------------------------------o||
|--------------------------------|---------------------------------||
|--------------------------------|---------------------------------||
|
| E   S S E   Q.          Q        E   S S E   S S E   E   S S S S   
|--------------------------------|---------------------------------||
|--------------------------------|---------------------------------||
|--------------------------------|--------------------------------o||
|--------------------------------|-7-------7-------8---8----------o||
|10------10--10----------10------|-5---5-5-5---5-5-6---6---6-6-6-6-||
|-8---8-8-8---8-----------8------|---------------------------------||
     PM..                             PM..    PM..        PM......


     Gtr 2,3

  a  W
|-----------------------------------||
|15b17---~---~---~---~---~---~---~--||
|-----------------------------------||
|-----------------------------------||
|-----------------------------------||
|-----------------------------------||
|
|    H.                      E   E  
|-----------------------------------||
|-----------------------------------||
|-----------------------------------||
|----2-----------------------9---9-\||
|----2-----------------------7---7-\||
|----0-----------------------0---0-\||


* This is played by sliding into the power chord, not strumming it.

=============================================================================

Rhythmic notation:
T/t     = thirty-second note/rest (1/2 sixteenth note/rest)
S/s     = sixteenth note/rest
E/e     = eighth note/rest
Q/q     = quarter note/rest
H/h     = half note/rest
W/w     = whole note/rest
X./x.   = dotted "x" note/rest (3/2 rhythmic value of un-dotted note/rest)
+       = tie note => keep holding the note
/-##-\  = ##-tuplet (triplet, quadruplet, etc.)
a       = grace note ("appoggiatura")

Fingering notation:
##b&&   = bend note from ## to && (&& > ##)
&&pb##  = pre-bend note to && and release to ## (&& > ##)
h       = hammer-on
p       = pull-off
tr      = tremolo strum
~       = finger vibrato
V       = whammy bar "vibrato"
x       = muted fret (LH mute)
[##]    = harmonic -> N = Natural
                      S = Semi
                      P = Pitch
                      A = Artificial
                      T = Tapped
(##)/&& = slide up (from ##) to &&
(&&)\## = slide down (from &&) to ##
##/     = slide up from ## to "off" (usually around where fretboard meets body)
##\     = slide down from ## to "off" (usually around nut)
(##)    = tie note => keep holding the note
PM...   = palm mute (starting from "PM" until last period)

            
            
Suggest correction
Creating personal tab
Creating personal tab
You can edit any tab online and save it as your Personal.

You can edit, replace or remove any tab part or add personal notes – all changes will be seen only by you.

Personal tabs can be accessed anytime from any device, even offline.
Learn more »
Give kudos to tab author, rate the tab!
1 2 3 4 5
comments
print report bad tab
guest
You may want to rate the tab now too:
select rating
Wanna post a correction for this tab? Suggest correction