Oops, an error
Loading. Please wait.

Bronx Dance Party Bass Tab

version 1
version 1

Whole song

Interactive

538 views 1 this week
no commentswrite comment
1 2 3 4 5
please rate
add to favorites
launch autoscroll
font size
0
reset
guitar tuner
Autoscroll
slow
fast
+/-
esc
set tempo
stop
Help us to improve Ultimate-Guitar.com Take our survey!
×
Author
-------------------------------------------------------------------------------
			     Bronx Dance Party - Daly's Gone Wrong
-------------------------------------------------------------------------------

Tabbed By : Scott Cohen
e-mail: meanmeanstride@gmail.com

Tuning: EADG (standard)

Intro: (0:11-0:23)

G|---------------------------------------------------------------------------|
D|---------------------------------------------------------------------------|
A|-------------------0-2-3-3-3-3-3-3-3-3-3-2---------------------------------|
E|--/1-1-1-1-1-1-1-1-------------------------3-3-3-3-3-3-3-5-1111-1111-------|

Verse: x2 (0:23-0:48)

G|---------------------------------------------------------------------------|
D|------------------------5-3-2---3-2----5-3-2---3-2-----3-2----3-2-0--------|
A|------3---------3-2-3-3-------3-------------------------------------3--0---|
E|--5-5---5-3-5-5--------------------3-3-------3-----1-1----1-1--------------|

After first verse, second repetition: (0:48-0:50)

G|---------------------------------------------------------------------------|
D|--(triplet)-----------(triplet)--------------------------------------------|
A|--0-000------------/12-121212----------------------------------------------|
E|---------------------------------------------------------------------------|

Bridge: x2 (0:52-1:13)

G|---------------------------------------------------------------------------|
D|---------------------------------------------------------------------------|
A|--8-8---7-8-8---7-----10-------10---10-10-8-7--10-10-8-7-8-8---7-8-8---7---|
E|------8-------8---8-8----8-8-8----8--------------------------8-------8-----|

Slow Breakdown: (1:13-1:28)

G|------------------------------5-------------------------10101010-9---------|
D|-------------3----------------------------------------------------10-------|
A|-------------------3--3---3-3---3-3---------3h5p3-------------------8h10-8-|
E|-1--1--1-1----1-1---------------------3--3h5------5p3-1--------------------|

Bridge: (1:28-1:39)
G|---------------------------------------------------------------------------|
D|---------------------------------------------------------------------------|
A|--8-8---7-8-8---7-----10-------10---10-10-8-7--10-10-8-7-8-888-------------|
E|------8-------8---8-8----8-8-8----8----------------------------/1-111------|

Verse: x2 (1:39-2:02) [Only play full riff on first repetition]

G|---------------------------------------------------------------------------|
D|------------------------5-3-2---3-2----5-3-2---3-2-----3-2----3-2-0--------|
A|------3---------3-2-3-3-------3-------------------------------------3--0---|
E|--5-5---5-3-5-5--------------------3-3-------3-----1-1----1-1--------------|

On second repetition of the verse, new ending: (~2:03)

G|---------------------------------------------------------------------------|
D|----3-3-3-3-3-2-0----------------------------------------------------------|
A|------------------3--0-----------------------------------------------------|
E|---------------------------------------------------------------------------|

Chorus: x2 (2:04-2:29)

G|---------------------------------------------------------------------------|
D|---------------------------------------------------------------------------|
A|-0000000000000000-----------------3333333333333333-2222222222222222--33-22-|
E|-----------------3333333333333333------------------------------------------|

Chorus: (2:29-2:45)

G|---------------------------------------------------------------------------|
D|---------------------------------------------------------------------------|
A|--0--000-0-0-0--------------------3--3-3--3-3--3-3-3--2--2-2-2-2--2-2-2h3p2|
E|---------------3--3-3--3-3--3-3-3------------------------------------------|

Chorus pt2: (2:45-3:00)

G|----------5-4--------------------------------------------------------------|
D|----777-7-----5---5-5--5-5--5-5--------------------------------------------|
A|-0------------------------------/3333333333333333-22222222222222222--------|
E|----------------3----------------------------------------------------------| 

Breakdown: (3:01-3:12)

G|---------------------------------------------------------------------------|
D|---------------------------------------------------------------------------|
A|-----------------------------/7-7-7-7-7-7-7-7-7----------------------------|
E|-0-------0-0-------0-3-0---------------------------------------------------|

Breakdown, ctd: x2 (3:12-3:21)

G|---------------------------------------------------------------------------|
D|----5-----------5-----------5-----6----------------------------------------|
A|--7---0-7-6---7---0-7-6---7---0-7----7-7-----------------------------------|
E|---------------------------------------------------------------------------|

Breakdown, ctd: x2 (3:21-3:33) [The notes here are a fast gallop, Iron Maiden style)

G|---------------------------------------------------------------------------|
D|---------------------------------------------------------------------------|
A|---------------------------------------------------------------------------|
E|-000--000--000-000-000--000--000-000-000-----------------------------------|

Breakdown, ctd: x2 (3:33-3:47)
G|---------------------------------------------------------------------------|
D|---------------------------------------------------------------------------|
A|---------------------------------------------------------------------------|
E|-000----000---000-000-000---000---000-000-000-000--------------------------|

Transition from breakdown to verse: (3:47-3:50)

G|---------------------------------------------------------------------------|
D|---------------------------------------------------------------------------|
A|----------/7-7-7-7\--------------------------------------------------------|
E|-0-0-0-0-------------------------------------------------------------------|

Verse: x2 (3:50-4:13)

G|---------------------------------------------------------------------------|
D|------------------------5-3-2---3-2----5-3-2---3-2-----3-2----3-2-0--------|
A|------3---------3-2-3-3-------3-------------------------------------3--0---|
E|--5-5---5-3-5-5--------------------3-3-------3-----1-1----1-1--------------|

On second repetition of the verse, second ending: (~4:14)

G|---------------------------------------------------------------------------|
D|----3-3-3-3-3-2-0----------------------------------------------------------|
A|------------------3--0-----------------------------------------------------|
E|---------------------------------------------------------------------------|

Chorus: x2 (4:14-4:39) [on second repetition, don't play descending scale, just F)

G|---------------------------------------------------------2-0---------------|
D|-------------------------------------------------------------3-2-0---------|
A|-00000000000---3333333333-320--------------------------------------3-2-----|
E|-------------33---------------3333333333-55-111111111111-------------------|

Ending: (4:42-4:58)

G|---------------------------------------------------------------------------|
D|---------------------------------------------------------------------------|
A|-------------3-3-3-3-3-3-3-3-----------------------------------------------|
E|-1-1-1-1-1-1-----------------3-3-3-3-3-3-3--1-1-1-1-1-1--------------------|

Outro: (4:59-end) [yes, that is a chord, play both notes at the same time]

G|-------------------9-------------------101010-9----------------------------|
D|-------------10----10---------------------------10-------------------------|
A|----------10----10---------3h5p3-------------------8h10p8------------------|
E|-1-1-1-/8-------------3-3h5------5p3-1-------------------------------------|


| /  slide up
| \  slide down
| h  hammer-on
| p  pull-off
| ~  vibrato
| +  harmonic
| x  Mute note
===============================================================================
Suggest correction
What's this?
You can suggest a correction to this tab. Community and Mods will review your correction and vote to approve or reject it.
comments
We did not receive enough feedback on this tab! Please rate:
print report bad tab
1 2 3 4 5
guest
You may want to rate the tab now too:
select rating
Please do not post tabs as comments. Select "correction" instead!