Oops, an error
Loading. Please wait.

Winter Tab

70 views 1 this week
no commentswrite comment
1 2 3 4 5
3 more votes to show rating
add to favorites
launch autoscroll
font size
0
reset
how to read this tab
guitar tuner
Autoscroll
slow
fast
+/-
esc
set tempo
stop
Help us to improve Ultimate-Guitar.com Take our survey!
×
Author
Difficulty
Tuning
novice
D# G# C# F# A# D#
Damian Lynn - Winter

Tuning: half step down



Intro & Verse
       
e|-----3-----7-----5-----5----------------------------------------|
B|-----1-----0-----3-----3----------------------------------------|
G|-----0-----0-----0-----0----------------------------------------|
D|-----2-----5-----4-----4----------------------------------------|
A|-----3-----7-----5-----5----------------------------------------|
E|-----x-----x-----x-----x----------------------------------------|



Chorus

e|-----7-----3-----3-----5----------------------------------------|
B|-----0-----1-----3-----3----------------------------------------|
G|-----0-----0-----0-----0----------------------------------------|
D|-----5-----2-----0-----4----------------------------------------|
A|-----7-----3-----2-----5----------------------------------------|
E|-----x-----x-----3-----x----------------------------------------|



Outro
       (strum a few times)           (strum only once)
e|-----5-----------------     e|-----7-----3-----3-----5----------|
B|-----3-----------------     B|-----0-----1-----3-----3----------|
G|-----0-----------------     G|-----0-----0-----0-----0----------|
D|-----4-----------------     D|-----5-----2-----0-----4----------|
A|-----5-----------------     A|-----7-----3-----2-----5----------|
E|-----x-----------------     E|-----x-----x-----3-----x----------|

ORDER OF PARTS:
Intro 2x - Verse 6x - Chorus 4x - Verse 6x - Chorus 4x - Outro

Enjoy...
Suggest correction
Give kudos to tab author, rate the tab!
1 2 3 4 5
comments
print report bad tab
guest
You may want to rate the tab now too:
select rating
Wanna post a correction for this tab? Suggest correction