Oops, an error
Loading. Please wait.

Curbside tab

version 2
version 2

Whole song

  • This tab has every part lined out in it, unlike the 1 other tab.
67 views 1 this week
5 commentsread comments
1 2 3 4 5
2 more votes to show rating
add to favorites
×
Save as Personal and add changes to this tab that will be seen only by you. Learn more ›
×
You can save this tab as Personal to edit and correct it or add notes. All changes will be seen only by you. Learn more »
launch autoscroll
font size
0
reset
how to read this tab
guitar tuner
edit
Autoscroll
slow
fast
+/-
esc
set tempo
stop
About this tab version
This tab has every part lined out in it, unlike the 1 other tab. Was this info helpful? Yes No
Damien Jurado - Curbside
Tabbed by Caelan Jewell - Exeletor1@gmail.com
Capo 3




[Intro]

e|------0-------0-------0h2-----0---------|
B|-----3-3-----3-3-----3---3---3-3--------|
G|----0---0---0---0---2-----2-2---0-------|
D|---0-----0-0-----0-0-------0------------|
A|--3-------2-----------------------------|
E|----------------------------------------|

e|------0-------0-------0-----0-----------|
B|-----3-3-----3-3-----3-3---3-3----------|
G|----0---0---0---0---2---2-2---0---------|
D|---0-----0-0-----0-0-----0--------------|
A|--3-------2-----------------------------|
E|----------------------------------------|


[Verse]

e|------0-------0-------0-----0h2---------|
B|-----3-3-----3-3-----3-3---3---3--------|
G|----0---0---0---0---2---2-2-----0-------|
D|---0-----0-0-----0-0-----0--------------|
A|--3-------2-----------------------------|
E|----------------------------------------|

e|------0-------0-------0-----2-----------|
B|-----3-3-----3-3-----3-3---3-3----------|
G|----0---0---0---0---2---2-2---0---------|
D|---0-----0-0-----0-0-----0--------------|
A|--3-------2-----------------------------|
E|----------------------------------------|


[Pre-Chorus 1]

e|------2---------------3----0------------|
B|-----3-3--------------3-----3-----------|
G|----0---0-------------0------0----------|
D|---2-----2------------0-------0---------|
A|--0-------------------2-----------------|
E|----------------------------------------|


[Pre-Chorus 2]

e|------2---------------3----0------------|
B|-----3-3--------------3-----3----3------|
G|----0---0-------------0------0----0-----|
D|---2-----2------------0-------0----0----|
A|--0-------------------2-------------0---|
E|----------------------------------------|


[Chorus]

e|------2--------2-------2------0---------|
B|-----3-3------3-3-----3-3----3-3--------|
G|----0---0----0---0---0---0--2---2-------|
D|---2-------0------0-0------0------------|
A|--0-------2--------1--------------------|
E|----------------------------------------|

e|------2-------2-------------------------|
B|-----3-3-----3-3------------------------|
G|----0---0---0---0-----------------------|
D|---2-------0----------------------------|
A|--0-------2-------1---------------------|
E|----------------------------------------|


[Outro]

e|------0-------0-------------------------|
B|-----3-3-----3-3----3-------------------|
G|----0---0---0---0---2-------------------|
D|---0-----0-0-----0--0-------------------|
A|--3-------2-----------------------------|
E|----------------------------------------|


The order of the song is this:

[Intro]
[Verse]
[Pre-Chorus 1]
[Verse]

[Pre-Chorus 2]
[Chorus]

Faster Intro
[Verse]
[Pre-Chorus 1]
[Verse]
[Pre-Chorus 2]


[Chorus]

Faster Intro
[Pre-Chorus 2]


[Chorus]

Fast Outro

Be sure to listen to the song for correct timings. Please rate and share! Thanks!

************************************

| h   Hammer-on

************************************

            
            
Suggest correction
Creating personal tab
Creating personal tab
You can edit any tab online and save it as your Personal.

You can edit, replace or remove any tab part or add personal notes – all changes will be seen only by you.

Personal tabs can be accessed anytime from any device, even offline.
Learn more »
Give kudos to tab author, rate the tab!
1 2 3 4 5
comments
print report bad tab
5 comments total. Showing first comments.
0 reply
AidanBK 89 Aug 02, 2016 03:20 PM

you and i wrote 2 out of the 3 tabs for this song on the same day... how weird. everything looks good to me except during the verses i think its the 3rd fret on the B-string (for the first two chords), not 1st!

guest
You may want to rate the tab now too:
select rating
Wanna post a correction for this tab? Suggest correction