Oops, an error
Loading. Please wait.

9 Crimes Tab

version 3
version 3
24,132 views 1 this week
1 commentread comment
1 2 3 4 5
accurate
x 5
add to favorites
launch autoscroll
font size
0
reset
how to read this tab
guitar tuner
Autoscroll
slow
fast
+/-
esc
set tempo
stop
Help us to improve Ultimate-Guitar.com Take our survey!
×
Difficulty
intermediate
This is for the people that want to play the song as it is, without the higher C which annoyed me.

E|------------|------------|------------|-----------|------------|
B|------------|------------|------------|-----------|------------|
G|-------2--4-|-5-----4--5-|----------0-|-----------|-------0--2-|
C|------------|----4-------|-------5----|------0--4-|----2-------|
F|------------|-4----------|-0---7------|----2------|--2---------|
C|------------|------------|------------|-0---------|------------|

tabbed by Mykehawkeye
Suggest correction
comments
print report bad tab
1 comment total.
0 reply
Mykehawkeye@hot 10 wrote on July 21 2008, 12:21 pm

Hey this is my tab, but I wasnt regestered and it somehow got on here, but I want to point out a few things. Firstly, this is THE ONLY correct tab on here, and it is a direct translation from piano to guitar. If you play any of the other ones you are playing G instead of C on the bass note for the 3rd chord and it sounds wrong.

Also I made a few mistakes on this one (I tabbed it about a year ago)
first time through you play this...

E|------------|------------|------------|-----------|------------|
B|------------|------------|------------|-----------|------------|
G|-------2--4-|-5-----2--4-|----------0-|-----------|-------0--2-|
C|------------|----4-------|-------5----|------0--4-|----2-------|
F|------------|-4----------|-0---7------|----2------|--2---------|
C|------------|------------|------------|-0---------|------------|

Then sensibly repeat the chords (remember to hold the G on the 4th tiem thought.

E|------------|------------|------------|-----------|------------|
B|------------|------------|------------|-----------|------------|
G|------------|-------4--5-|----------0-|-----------|-------0--2-|
C|------------|----4-------|-------5----|------0--4-|----2-------|
F|------------|-4----------|-0---7------|----2------|--2---------|
C|------------|------------|------------|-0---------|------------|

This is directly translated from Piano from the song. And it is 100% correct (less human error it typing it up)

guest
You may want to rate the tab now too:
select rating
Please do not post tabs as comments. Select "correction" instead!