Oops, an error
Loading. Please wait.

9 Crimes Tab

version 5
version 5
356,147 views 408 this week
20 commentsread comments
1 2 3 4 5
x 117
add to favorites
launch autoscroll
font size
0
reset
how to read this tab
guitar tuner
Autoscroll
slow
fast
+/-
esc
set tempo
stop
Help us to improve Ultimate-Guitar.com Take our survey!
×
Author
DAMIEN RICE - 9 CRIMES.
This is my first tab, It´s very easy to play this song. I hope it´s a good one. When I
it, it sounds good.


[Intro]

e|-----------------------------------------------------------------------------|
B|---0-1-----0-1---------------------------------------------------------------|
G|-2--------------------0---------------0-2------------------------------------|
D|---------2----------3----------2----0----------------------------------------|
A|-----0------------3------3---3-----------------------------------------------|
E|----------------1----------3------3------------------------------------------|(x1)

e|-----------------------------------------------------------------------------|
B|-----0-1---------------------------------------------------------------------|
G|----------------0---------------0-2------------------------------------------|
D|---2----------3----------2----0----------------------------------------------|
A|-0----------3------3---3-----------------------------------------------------|
E|----------1----------3------3------------------------------------------------|(x2)

e|-----------------------------------------------------------------------------|
B|-----0-1---------------------------------------------------------------------|
G|----------------0------------------------------------------------------------|
D|---2----------3----------2----0----------------------------------------------|
A|-0----------3------3---3-----------------------------------------------------|
E|----------1----------3------3------------------------------------------------|(x1)


[Verse]

e|-----------------------------------------------------------------------------|
B|-----0-1---------------------------------------------------------------------|
G|----------------0---------------0-2------------------------------------------|
D|---2----------3----------2----0----------------------------------------------|
A|-0----------3------3---3-----------------------------------------------------|
E|----------1----------3------3------------------------------------------------|(x1)

e|-----------------------------------------------------------------------------|
B|-----0-1---------------------------------------------------------------------|
G|----------------0------------------------------------------------------------|
D|---2----------3----------2----0----------------------------------------------|
A|-0----------3------3---3-----------------------------------------------------|
E|----------1----------3------3------------------------------------------------|(x1)

e|-----------------------------------------------------------------------------|
B|-----0-1---------------------------------------------------------------------|
G|----------------0---------------0-2------------------------------------------|
D|---2----------3----------2----0----------------------------------------------|
A|-0----------3------3---3-----------------------------------------------------|
E|----------1----------3------3------------------------------------------------|(x1)

e|-----------------------------------------------------------------------------|
B|-----0-1---------------------------------------------------------------------|
G|----------------0------------------------------------------------------------|
D|---2----------3----------2---------------------------------------------------|
A|-0----------3------3---3-----------------------------------------------------|
E|----------1----------3------3------------------------------------------------|(x1)


[Chorus]

e|-----------------------------------------------------------------------------|
B|-----0-1---------------------------------------------------------------------|
G|----------------0---------------0-2------------------------------------------|
D|---2----------3----------2----0----------------------------------------------|
A|-0----------3------3---3-----------------------------------------------------|
E|----------1----------3------3------------------------------------------------|(x3)

e|-----------------------------------------------------------------------------|
B|-----0-1---------------------------------------------------------------------|
G|----------------0------------------------------------------------------------|
D|---2----------3----------2---------------------------------------------------|
A|-0----------3------3---3-----------------------------------------------------|
E|----------1----------3------3------------------------------------------------|(x1)


[Verse]

e|-----------------------------------------------------------------------------|
B|-----0-1---------------------------------------------------------------------|
G|----------------0---------------0-2------------------------------------------|
D|---2----------3----------2----0----------------------------------------------|
A|-0----------3------3---3-----------------------------------------------------|
E|----------1----------3------3------------------------------------------------|(x1)

e|-----------------------------------------------------------------------------|
B|-----0-1---------------------------------------------------------------------|
G|----------------0------------------------------------------------------------|
D|---2----------3----------2----0----------------------------------------------|
A|-0----------3------3---3-----------------------------------------------------|
E|----------1----------3------3------------------------------------------------|(x1)

e|-----------------------------------------------------------------------------|
B|-----0-1---------------------------------------------------------------------|
G|----------------0---------------0-2------------------------------------------|
D|---2----------3----------2----0----------------------------------------------|
A|-0----------3------3---3-----------------------------------------------------|
E|----------1----------3------3------------------------------------------------|(x2)


[Chorus]

e|-----------------------------------------------------------------------------|
B|-----0-1---------------------------------------------------------------------|
G|----------------0---------------0-2------------------------------------------|
D|---2----------3----------2----0----------------------------------------------|
A|-0----------3------3---3-----------------------------------------------------|
E|----------1----------3------3------------------------------------------------|(x12)


[Outro]

e|-----------------------------------------------------------------------------|
B|-----0-1---------------------------------------------------------------------|
G|----------------0---------------0-2------------------------------------------|
D|---2----------3----------2----0----------------------------------------------|
A|-0----------3------3---3-----------------------------------------------------|
E|----------1----------3------3------------------------------------------------|(x3)

e|-----------------------------------------------------------------------------|
B|-----0-1---------------------------------------------------------------------|
G|----------------0------------------------------------------------------------|
D|---2----------3----------2----0----------------------------------------------|
A|-0----------3------3---3-----------------------------------------------------|
E|----------1----------3------3------------------------------------------------|(x1)
Suggest correction
comments
print report bad tab
20 comments total. Showing first comments.
0 reply
Tabassco 143 Feb 20, 2007 02:32 PM

Nice tab!!!

0 reply
LP_RuLeZZZ 31 Jun 21, 2007 01:32 PM

nice 5 stars *****

0 reply
Paul Lambeth 660 Aug 03, 2007 07:54 AM

Perfect :).

guest
You may want to rate the tab now too:
select rating
Wanna post a correction for this tab? Suggest correction