Oops, an error
Loading. Please wait.

9 Crimes Tab

version 6
version 6

Interactive

2,317 views 15 this week
no commentswrite comment
1 2 3 4 5
x 3
add to favorites
launch autoscroll
font size
0
reset
how to read this tab
guitar tuner
×
Best way to learn
"9 Crimes"
Autoscroll
slow
fast
+/-
esc
set tempo
stop
Listen to song to get rhythm. It's played pretty slowly for most of it.
Video with PDF file download: http://www.youtube.com/watch?v=RVAf6UtBhzM
100% correct
No capo
[Intro, Verse 1, Chorus, Verse 2 (in parentheses), 2nd Chorus (in parentheses), Outro.]

[Intro]
[Part 1]
      Am       F       C       G
E|-----------------------------------------|
A|---0-1--------------------1-----0----0-2-|
D|-2---------2-----2-0------0--------0-----|
G|---------2-----3-------2-----2-----------|
B|-------0-------------3-------------------|
e|-------------1------------------3--------|

[Part 2]                              [Part 3]
   Am       F      C     G              Am      F       C       G
E|-------------------------------|    |---------------------------|
A|-------0-------------1---------|    |-------0-------------1---0-|
D|-----2-------2-0-----0-----0-2-|    |-----2-------2-0-----0-----|
G|---2-------3-------2-----0-----| x3 |---2-------3-------2---2---|
B|-0---------------3-------------|    |-0---------------3---------|
e|---------1-------------3-------|    |---------1---------------3-|

[Verse 1](Verse 2)
         Am           F              C          G
Leave me out with the waste, this is not what I do.
(Leave me out with the waste, this is not what I do.)
E|--------------------------------|
A|---0--1-----0-1-----0-1---1-1-0-|
D|-2--------2-------2-------0-----|
G|--------------------------------|
B|--------0---------------3-------|
e|----------------1---------------|

         Am            F           C       G
It's the wrong kind of place to be thinking of you.
(It's the wrong kind of place to be cheating on you.)
E|-------------------------------------|
A|-----0-1-----0-1-----0-1---1-1-0-----|
D|---2-------2-------2-------0---------|
G|-----------------------------------0-|
B|---------0---------------3-----------|
e|-3---------------1---------------3---|

         Am    F        C        G
It's the wrong time for somebody new.
(It's the wrong time she's pulling me through.)
E|-----0-------0---------0--1p0---|
A|-1h3-----------------1-1------3-|
D|-----------2--------------------|
G|---------2---------2------------|
B|-------0---------3-----3--------|
e|---------------1----------------|

[Chorus](2nd Chorus - a little different but use the same chords/tab)

       Am    F            C      G                    Am
It's a small crime, and I got no excuse. And is that alright? Yeah.
(It's a small crime, and I got no excuse. And is that alright? Yeah.)
E|--------0-------0-------0--1p0-------3-3-3-(3)-------|
A|----1h3-----------------1----------------------------|
D|--------------2-------2-0---------0--------------1-1-|
G|--0---------2-------3------------0---------------2---|
B|----------0-------------3-------------------0--2-----|
e|-3----------------1------------3---------------------|


C       G                  Am              F
Give my gun away when it's loaded. Is that alright? Yeah.
(To give my gun away when it's loaded [Is that alright with you?])
E|-------0-0-0----------------0-3-3-3---------|
A|-------1-1-------3-1-3-1--3-------------1-1-|
D|-----0----------------------------------2---|
G|---2-----------0----------------------3-----|
B|-3------------------------0-----------------|
e|-------------3----------------------1-------|
             C                             G                Am       F
If you don't shoot it how am I supposed to hold it? Is that alright? Yeah.
(Is that alright? Yeah. If you don't shoot it how am I supposed to hold it?[Is that 
alright with you?])
E|-----0-0-0----------------0-3-3-3-----------|
A|-----1-1------3-1-3-1--3-------------1-1----|
D|---1---------------------------------2------|
G|--2---------0----------------------3--------|
B|-3---------------------0--------------------|
e|-----------3----------------------1---------|

C       G                  Am              F
Give my gun away when it's loaded. Is that alright? Yeah, with you?
(Is that alright? Yeah. If I give my gun away when it's loaded.[Is that alright with you?])
E|-------0-0-0----------------0-3-3-3----------|
A|-------1-1-------3-1-3-1--3-------------1-1--|
D|-----0----------------------------------2----|
G|---2-----------0----------------------3------|
B|-3------------------------0------------------|
e|-------------3----------------------1-------3|

Outro (Play Intro Part 1 (once), then Intro part 2 til end of song):

Is that alright? Yeah. To give my gun away when it's loaded.
Is that alright? Yeah.
If you don't shoot it, how am I supposed to hold it? [Is that alright?]
Is that alright? Yeah. To give my gun away when it's loaded.
Is that alright? Is that alright with you?
Is that alright? Yeaaah. [To give my gun away when it's loaded]
Is that alright? Yeaaah. [If you don't shoot it how am I supposed to hold it?]
Is that alright? Yeaaah. [To give my gun away when it's loaded]
Is that alright? Is that alright? Is that alright with you? No.

************************************

| p    Pull-off
| h    Hammer-on
| (n)  Ghost note

************************************
Suggest correction
Give kudos to tab author, rate the tab!
1 2 3 4 5
comments
print report bad tab
guest
You may want to rate the tab now too:
select rating
Wanna post a correction for this tab? Suggest correction