Oops, an error
Loading. Please wait.

Accidental Babies Tab

version 2
version 2

Whole song

Interactive

8,473 views 6 this week
no commentswrite comment
1 2 3 4 5
x 3
add to favorites
launch autoscroll
font size
0
reset
how to read this tab
guitar tuner
Autoscroll
slow
fast
+/-
esc
set tempo
stop
Help us to improve Ultimate-Guitar.com Take our survey!
×
Difficulty
Tuning
novice
E A D G B E
Damien Rice - Accidental Babies
tabbed by wego

Standard Tuning - No Capo

Intro & Chorus
--------------
   Dm                G               C               Am                F      
e|-0-------1---3h5--------------------------------------------------------------------------------------|
B|-|---3-------------0---0---1---3---1-----1-1-----1-1-----0-1-----0-1-1-------1-----0-1-0---0--1--3----|
G|-|-2---2---2-----2-|---------------|---0---|---0---|---2-----0-2-----|---2---|---2-----|--------------|
D|-0-----------------|-0---0---0---0-|-2-----|-2-----|-2---------------|-3---3-|-3-------|-0---0--0--(0)|
A|-------------------|---------------3-------2-------0-----------------|-------|---------|--------------|
E|-------------------3-------------------------------------------------1-------1---------3--------------|

Verse
-----
   F               G               C               Am                F          
e|-1-----------1--------------------------------------------------------------------------------------|
B|-|-------1-------0---0---1---3---1-----1-1-----1-1-----0-1-----0-1-1-------1-----0-1-0---0--1--3----|
G|-|---2---------2-|---------------|---0---|---0---|---2-----0-2-----|---2---|---2-----|--------------|
D|-|-3---3---3-----|-0---0---0---0-|-2-----|-2-----|-2---------------|-3---3-|-3-------|-0---0--0--(0)|
A|-|---------------|---------------3-------2-------0-----------------|-------|---------|--------------|
E|-1---------------3-------------------------------------------------1-------1---------3--------------|
Suggest correction
Give kudos to tab author, rate the tab!
1 2 3 4 5
comments
print report bad tab
guest
You may want to rate the tab now too:
select rating
Wanna post a correction for this tab? Suggest correction