Oops, an error
Loading. Please wait.

Baby Sister intro tab

version 1
version 1

Intro

Whole song

37 views 1 this week
no commentswrite comment
1 2 3 4 5
3 more votes to show rating
add to favorites
×
Save as Personal and add changes to this tab that will be seen only by you. Learn more ›
×
You can save this tab as Personal to edit and correct it or add notes. All changes will be seen only by you. Learn more »
launch autoscroll
font size
0
reset
how to read this tab
guitar tuner
edit
Autoscroll
slow
fast
+/-
esc
set tempo
stop
Author
Difficulty
Some minor changes to Jonny C's tab. Most credit goes to him. But the little addition hereappeared
to me as indispensible. This melody sometimes pauses for a bit, but generally repeats throughout the song.


[Intro]

e|----------------------------------------------------|
B|----------------------------------------------------|
G|--------0-0--------0-0--------0-0-0-----------------| 
D|------1-1-1------1-1-1------1-1-1-0---------0h3-----| 
A|----3----------3----------2---------------2---------| 
E|----------------------------------------------------|

e|----------------------------------------------------|
B|----------------------------------------------------|
G|--------1-1--------1-1---------1-1-0h1p0------------| 
D|--------3-3--------3-3---------3-3-3----------0h1---| 
A|------3----------3-----------2--------------2-------| 
E|----1----------1-----------3------------------------|


The hammer on in the fifth 'bar' (0h1p0) can/should be skipped at times. The sixth bar should equally be
skipped at times to let the 0h1p0 ring out. Fiddle around with alternating and mixing those two bars.



************************************

| h  Hammer-on
| p  Pull-off

************************************

            
            
Suggest correction
Creating personal tab
Creating personal tab
You can edit any tab online and save it as your Personal.

You can edit, replace or remove any tab part or add personal notes – all changes will be seen only by you.

Personal tabs can be accessed anytime from any device, even offline.
Learn more »
Give kudos to tab author, rate the tab!
1 2 3 4 5
comments
print report bad tab
guest
You may want to rate the tab now too:
select rating
Wanna post a correction for this tab? Suggest correction