Oops, an error
Loading. Please wait.

Cannonball Chords

version 4
version 4

Interactive

23,579 views 6 this week
no commentswrite comment
1 2 3 4 5
please rate
add to favorites
launch autoscroll
font size
0
reset
transpose
0
reset
display chords
guitar tuner
Tab Pro tools
  • play this tab
  • loop segment
  • change instrument
  • show fretboard
  • metronome
×
Best way to learn
"Cannonball"
Autoscroll
slow
fast
+/-
esc
set tempo
stop
Contributor
Damien Rice
Cannonball
0 (2003)

Tabbed by: CO (calopi@hotmail.com)

Tuning: Drop Eb, half step down

----INTRO-----

    Bbm          Ab            Bbm          Ab
eb|-------------------------------------------------------------|
Bb|-------------------------------------------------------------|
Gb|---7-7-7-7-7-5-2h4p2--2-2-2-2----7-7-7-7-7-5-2h4p2--2-2-2-2--|
Db|---0-0-0-0-0-0-0---0--0-2h4-0----0-0-0-0-0-0-0---0--0-2h4-0--|
Ab|---x-x-x-x-x-x-0---0--0-0---0----x-x-x-x-x-x-x---0--0-0---0--|
Eb|-7-7-7-7-7-7-7---------------7-7-7-7-7-7-7-5-----------------|

    Bbm          Ab         Bbm          Ab
eb|--------------------------------------------------------|
Bb|---7-7-7-7-7-8-7----------------7-----------------------|
Gb|---7-7-7-7-7-7-7-9/-7--7--7-7h9-x-4h7-7--7--------------|
Db|---0-0-0-0-0-0-0-0--0--0--0-0-0-0-0---0--0--------------|
Ab|---x-x-x-x-x-x-x-x--x--x--x-x-x-x-x---x--x--------------|
Eb|-7-7-7-7-7-7-7-7-7/-5--5--5-7-7-7-5---5--5--------------|


----VERSE----
Bbm                          Ab
Still a little bit of your taste in my mouth
Bbm                          Ab
Still a little bit of your lace with my doubt
Bbm                          Ab                      Gb
Still a little hard to sing                what's  going on

Bbm                          Ab
Still a little bit of your ghost, your weakness
Bbm                          Ab
Still a little bit of your face I haven't kissed
Bbm                          Ab                      Gb
Step a little closer each day and I can't say what's going on

---CHORUS---
   Db                      Ab
eb|-----------------------------------------|
Bb|-10-10-10-10-10-10-10-10-----------------|
Gb|-11-11-11-11-11-11-11-11-6-6-6-6-6-6-6-6-|
Db|-0--0--0--0--0--0--0--0--0-0-0-0-0-0-0-0-|
Ab|-x--x--x--x--x--x--x--x--x-x-x-x-x-x-x-x-|
Eb|-10-10-10-10-10-10-10-10-5-5-5-5-5-5-5-5-|
   Stones   taught need to fly
   Db                      Ab
   love     taught me to lie
   Db                      Ab
   life     taught me to die
                    Gb              Ab               Bbm
so it's not hard to fall when you fall like a cannonball

---INTRO----

---VERSE----
Still a little bit of your song in my ear
Still a little bit of your words I long to hear
Step a little closer to me so close that I can't see what's going on

---CHORUS----
(Second time: )
Db                      Ab
Stones   taught need to fly
Db                      Ab
love     taught me to cry
Db                      Ab
so common courage teach me to be shy
                        Gb          Ab
'cause it's not hard to fall and I don't want to scare her
                  Gb               Ab
      it's not hard to fall and I don't want to lose
                  Gb               Ab                      Bbm
it's no hard to grow when you know that you just don't know

---INTRO----
End
____________________________

| /  slide up
| \  slide down
| h  hammer-on
| p  pull-off
| b  bend to note
| ~  vibrato
| +  harmonic
| x  Mute note
comments
We did not receive enough feedback on this tab! Please rate:
print report bad tab
1 2 3 4 5
I want to post or [tab]
guest
You may want to rate the tab now too:
select rating
Please do not post tabs as comments. Select "correction" instead!