Oops, an error
Loading. Please wait.

Colour Me In tab

688 views 57 this week
no commentswrite comment
1 2 3 4 5
x 6
add to favorites
×
Save as Personal and add changes to this tab that will be seen only by you. Learn more ›
×
You can save this tab as Personal to edit and correct it or add notes. All changes will be seen only by you. Learn more »
launch autoscroll
font size
0
reset
how to read this tab
guitar tuner
edit
Autoscroll
slow
fast
+/-
esc
set tempo
stop
About this tab version
Exact tab of how Damien plays it. The chorus and intro are identical, and all the verses are the same. The last part of the bridge is a build up in volume to the strumming, which is the climax of the song. Was this info helpful? Yes No
[Intro]
   C                       Am7          G
   1 + 2 + 3 + 4 + 5 + 6  + 1 + 2 + 3 + 4 + 5 + 6 +
e|--------------------------------------------------|
B|-------1---1--------------------1---1-------0---0-|
G|-------0---0---0---0----0-------0---0-------0---0-|
D|-------2---2-----0---0h2--------2---2-------0---0-|
A|-3-----------3------------0-----------------------|
E|--------------------------------------3-----------|

   C                       Am7          G
   1 + 2 + 3 + 4 + 5 + 6  + 1 + 2 + 3 + 4 + 5 + 6 +
e|--------------------------------------------------|
B|-------1---1--------------------1---1-------0---0-|
G|-------0---0---0---0----0-------0---0-------0---0-|
D|-------2---2-----0---0h2--------2---2-------0---0-|
A|-3-----------3------------0-----------------------|
E|--------------------------------------3-----------|

   Am                                  C
   1 + 2 + 3 + 4 + 5 + 6 + 1 + 2 + 3 + 4 + 5 + 6  +
e|--------------------------------------------------|
B|-------1---1-------1---1--------1---1-------------|
G|-------0---0-------0---0--------0---0--0---0----0-|
D|-------2---2-------2---2--------2---2----0---0h2--|
A|-0-----------0-----------0------------------------|
E|-------------------------------------3------------|

   F                                   G7
   1 + 2 + 3 + 4 + 5 + 6 + 1 + 2 + 3 + 4 + 5 + 6 +
e|-------------------------------------------------|
B|-----------1-------------------1-----------0-----|
G|-------0h2---------2p0-0---------2p0---0-------0-|
D|-----------------------------------------3---3---|
A|-------------------------------------------------|
E|-1-----------1-----------1-----------3-----------|

[Verse 1]
   C                        F           G
   1 + 2 + 3 + 4 + 5 + 6  + 1 + 2 + 3 + 4 + 5 + 6 +
e|--------------------------------------------------|
B|-------1---1--------------------1---1-------0---0-|
G|-------0---0---0---0----0-------2---2-------0---0-|
D|-------2---2-----0---0h2--------3---3-------0---0-|
A|-3-----------3------------------------------------|
E|--------------------------1-----------3-----------|

   C                        F           G
   1 + 2 + 3 + 4 + 5 + 6  + 1 + 2 + 3 + 4 + 5 + 6 +
e|--------------------------------------------------|
B|-------1---1--------------------1---1-------0---0-|
G|-------0---0---0---0----0-------2---2-------0---0-|
D|-------2---2-----0---0h2--------3---3-------0---0-|
A|-3-----------3------------------------------------|
E|--------------------------1-----------3-----------|

   Am                                  C
   1 + 2 + 3 + 4 + 5 + 6 + 1 + 2 + 3 + 4 + 5 + 6  +
e|--------------------------------------------------|
B|-------1---1-------1---1--------1---1-------------|
G|-------0---0-------0---0--------0---0--0---0----0-|
D|-------2---2-------2---2--------2---2----0---0h2--|
A|-0-----------0-----------0------------------------|
E|-------------------------------------3------------|

   F                                   G7
   1 + 2 + 3 + 4 + 5 + 6 + 1 + 2 + 3 + 4 + 5 + 6 +
e|-------------------------------------------------|
B|-----------1-------------------1-----------0-----|
G|-------0h2---------2p0-0---------2p0---0-------0-|
D|-----------------------------------------3---3---|
A|-------------------------------------------------|
E|-1-----------1-----------1-----------3-----------|

   C                        F           G
   1 + 2 + 3 + 4 + 5 + 6  + 1 + 2 + 3 + 4 + 5 + 6 +
e|--------------------------------------------------|
B|-------1---1--------------------1---1-------0---0-|
G|-------0---0---0---0----0-------2---2-------0---0-|
D|-------2---2-----0---0h2--------3---3-------0---0-|
A|-3-----------3------------------------------------|
E|--------------------------1-----------3-----------|

   C                        F           G
   1 + 2 + 3 + 4 + 5 + 6  + 1 + 2 + 3 + 4 + 5 + 6 +
e|--------------------------------------------------|
B|-------1---1--------------------1---1-------0---0-|
G|-------0---0---0---0----0-------2---2-------0---0-|
D|-------2---2-----0---0h2--------3---3-------0---0-|
A|-3-----------3------------------------------------|
E|--------------------------1-----------3-----------|

   Am                      Em            
   1 + 2 + 3 + 4 + 5 + 6 + 1 + 2 + 3 + 4 + 5 + 6 +
e|-------------------------------------------------|
B|-------1---1-------1---1-------0---0-------0---0-|
G|-------0---0-------0---0-------0---0-------0---0-|
D|-------2---2-------2---2-------2---2-------2---2-|
A|-0-----------0-----------------------------------|
E|-------------------------0-----------0-----------|

   F                                   G7sus4            
   1 + 2 + 3 + 4 + 5 + 6 + 1 + 2 + 3 + 4 + 5 + 6 +
e|-------------------------------------------------|
B|-------1---1-------1---1-------1---1-------1---1-|
G|-------2---2-------2---2-------2---2-------0---0-|
D|-------3---3-------3---3-------3---3-------3---3-|
A|-------------------------------------------------|
E|-1-----------1-----------1-----------3-----------|

[Verse 2]
   C                        F           G
   1 + 2 + 3 + 4 + 5 + 6  + 1 + 2 + 3 + 4 + 5 + 6 +
e|--------------------------------------------------|
B|-------1---1--------------------1---1-------0---0-|
G|-------0---0---0---0----0-------2---2-------0---0-|
D|-------2---2-----0---0h2--------3---3-------0---0-|
A|-3-----------3------------------------------------|
E|--------------------------1-----------3-----------|

   C                        F           G
   1 + 2 + 3 + 4 + 5 + 6  + 1 + 2 + 3 + 4 + 5 + 6 +
e|--------------------------------------------------|
B|-------1---1--------------------1---1-------0---0-|
G|-------0---0---0---0----0-------2---2-------0---0-|
D|-------2---2-----0---0h2--------3---3-------0---0-|
A|-3-----------3------------------------------------|
E|--------------------------1-----------3-----------|

   Am                                  C
   1 + 2 + 3 + 4 + 5 + 6 + 1 + 2 + 3 + 4 + 5 + 6  +
e|--------------------------------------------------|
B|-------1---1-------1---1--------1---1-------------|
G|-------0---0-------0---0--------0---0--0---0----0-|
D|-------2---2-------2---2--------2---2----0---0h2--|
A|-0-----------0-----------0------------------------|
E|-------------------------------------3------------|

   F                                   G7
   1 + 2 + 3 + 4 + 5 + 6 + 1 + 2 + 3 + 4 + 5 + 6 +
e|-------------------------------------------------|
B|-----------1-------------------1-----------0-----|
G|-------0h2---------2p0-0---------2p0---0-------0-|
D|-----------------------------------------3---3---|
A|-------------------------------------------------|
E|-1-----------1-----------1-----------3-----------|

   C                        F           G
   1 + 2 + 3 + 4 + 5 + 6  + 1 + 2 + 3 + 4 + 5 + 6 +
e|--------------------------------------------------|
B|-------1---1--------------------1---1-------0---0-|
G|-------0---0---0---0----0-------2---2-------0---0-|
D|-------2---2-----0---0h2--------3---3-------0---0-|
A|-3-----------3------------------------------------|
E|--------------------------1-----------3-----------|

   C                        F           G
   1 + 2 + 3 + 4 + 5 + 6  + 1 + 2 + 3 + 4 + 5 + 6 +
e|--------------------------------------------------|
B|-------1---1--------------------1---1-------0---0-|
G|-------0---0---0---0----0-------2---2-------0---0-|
D|-------2---2-----0---0h2--------3---3-------0---0-|
A|-3-----------3------------------------------------|
E|--------------------------1-----------3-----------|

   Am                      Em            
   1 + 2 + 3 + 4 + 5 + 6 + 1 + 2 + 3 + 4 + 5 + 6 +
e|-------------------------------------------------|
B|-------1---1-------1---1-------0---0-------0---0-|
G|-------0---0-------0---0-------0---0-------0---0-|
D|-------2---2-------2---2-------2---2-------2---2-|
A|-0-----------0-----------------------------------|
E|-------------------------0-----------0-----------|

   F                                   G7sus4            
   1 + 2 + 3 + 4 + 5 + 6 + 1 + 2 + 3 + 4 + 5 + 6 +
e|-------------------------------------------------|
B|-------1---1-------1---1-------1---1-------1---1-|
G|-------2---2-------2---2-------2---2-------0---0-|
D|-------3---3-------3---3-------3---3-------3---3-|
A|-------------------------------------------------|
E|-1-----------1-----------1-----------3-----------|

[Chorus]
   C                       Am7          G
   1 + 2 + 3 + 4 + 5 + 6  + 1 + 2 + 3 + 4 + 5 + 6 +
e|--------------------------------------------------|
B|-------1---1--------------------1---1-------0---0-|
G|-------0---0---0---0----0-------0---0-------0---0-|
D|-------2---2-----0---0h2--------2---2-------0---0-|
A|-3-----------3------------0-----------------------|
E|--------------------------------------3-----------|

   C                       Am7          G
   1 + 2 + 3 + 4 + 5 + 6  + 1 + 2 + 3 + 4 + 5 + 6 +
e|--------------------------------------------------|
B|-------1---1--------------------1---1-------0---0-|
G|-------0---0---0---0----0-------0---0-------0---0-|
D|-------2---2-----0---0h2--------2---2-------0---0-|
A|-3-----------3------------0-----------------------|
E|--------------------------------------3-----------|

   Am                                  C
   1 + 2 + 3 + 4 + 5 + 6 + 1 + 2 + 3 + 4 + 5 + 6  +
e|--------------------------------------------------|
B|-------1---1-------1---1--------1---1-------------|
G|-------0---0-------0---0--------0---0--0---0----0-|
D|-------2---2-------2---2--------2---2----0---0h2--|
A|-0-----------0-----------0------------------------|
E|-------------------------------------3------------|

   F                                   G7
   1 + 2 + 3 + 4 + 5 + 6 + 1 + 2 + 3 + 4 + 5 + 6 +
e|-------------------------------------------------|
B|-----------1-------------------1-----------0-----|
G|-------0h2---------2p0-0---------2p0---0-------0-|
D|-----------------------------------------3---3---|
A|-------------------------------------------------|
E|-1-----------1-----------1-----------3-----------|

[Verse 3]
   C                        F           G
   1 + 2 + 3 + 4 + 5 + 6  + 1 + 2 + 3 + 4 + 5 + 6 +
e|--------------------------------------------------|
B|-------1---1--------------------1---1-------0---0-|
G|-------0---0---0---0----0-------2---2-------0---0-|
D|-------2---2-----0---0h2--------3---3-------0---0-|
A|-3-----------3------------------------------------|
E|--------------------------1-----------3-----------|

   C                        F           G
   1 + 2 + 3 + 4 + 5 + 6  + 1 + 2 + 3 + 4 + 5 + 6 +
e|--------------------------------------------------|
B|-------1---1--------------------1---1-------0---0-|
G|-------0---0---0---0----0-------2---2-------0---0-|
D|-------2---2-----0---0h2--------3---3-------0---0-|
A|-3-----------3------------------------------------|
E|--------------------------1-----------3-----------|

   Am                                  C
   1 + 2 + 3 + 4 + 5 + 6 + 1 + 2 + 3 + 4 + 5 + 6  +
e|--------------------------------------------------|
B|-------1---1-------1---1--------1---1-------------|
G|-------0---0-------0---0--------0---0--0---0----0-|
D|-------2---2-------2---2--------2---2----0---0h2--|
A|-0-----------0-----------0------------------------|
E|-------------------------------------3------------|

   F                                   G7
   1 + 2 + 3 + 4 + 5 + 6 + 1 + 2 + 3 + 4 + 5 + 6 +
e|-------------------------------------------------|
B|-----------1-------------------1-----------0-----|
G|-------0h2---------2p0-0---------2p0---0-------0-|
D|-----------------------------------------3---3---|
A|-------------------------------------------------|
E|-1-----------1-----------1-----------3-----------|

   C                        F           G
   1 + 2 + 3 + 4 + 5 + 6  + 1 + 2 + 3 + 4 + 5 + 6 +
e|--------------------------------------------------|
B|-------1---1--------------------1---1-------0---0-|
G|-------0---0---0---0----0-------2---2-------0---0-|
D|-------2---2-----0---0h2--------3---3-------0---0-|
A|-3-----------3------------------------------------|
E|--------------------------1-----------3-----------|

   C                        F           G
   1 + 2 + 3 + 4 + 5 + 6  + 1 + 2 + 3 + 4 + 5 + 6 +
e|--------------------------------------------------|
B|-------1---1--------------------1---1-------0---0-|
G|-------0---0---0---0----0-------2---2-------0---0-|
D|-------2---2-----0---0h2--------3---3-------0---0-|
A|-3-----------3------------------------------------|
E|--------------------------1-----------3-----------|

   Am                      Em            
   1 + 2 + 3 + 4 + 5 + 6 + 1 + 2 + 3 + 4 + 5 + 6 +
e|-------------------------------------------------|
B|-------1---1-------1---1-------0---0-------0---0-|
G|-------0---0-------0---0-------0---0-------0---0-|
D|-------2---2-------2---2-------2---2-------2---2-|
A|-0-----------0-----------------------------------|
E|-------------------------0-----------0-----------|

   F                                   G7sus4            
   1 + 2 + 3 + 4 + 5 + 6 + 1 + 2 + 3 + 4 + 5 + 6 +
e|-------------------------------------------------|
B|-------1---1-------1---1-------1---1-------1---1-|
G|-------2---2-------2---2-------2---2-------0---0-|
D|-------3---3-------3---3-------3---3-------3---3-|
A|-------------------------------------------------|
E|-1-----------1-----------1-----------3-----------|

[Verse 4]
   C                        F           G
   1 + 2 + 3 + 4 + 5 + 6  + 1 + 2 + 3 + 4 + 5 + 6 +
e|--------------------------------------------------|
B|-------1---1--------------------1---1-------0---0-|
G|-------0---0---0---0----0-------2---2-------0---0-|
D|-------2---2-----0---0h2--------3---3-------0---0-|
A|-3-----------3------------------------------------|
E|--------------------------1-----------3-----------|

   C                        F           G
   1 + 2 + 3 + 4 + 5 + 6  + 1 + 2 + 3 + 4 + 5 + 6 +
e|--------------------------------------------------|
B|-------1---1--------------------1---1-------0---0-|
G|-------0---0---0---0----0-------2---2-------0---0-|
D|-------2---2-----0---0h2--------3---3-------0---0-|
A|-3-----------3------------------------------------|
E|--------------------------1-----------3-----------|

   Am                                  C
   1 + 2 + 3 + 4 + 5 + 6 + 1 + 2 + 3 + 4 + 5 + 6  +
e|--------------------------------------------------|
B|-------1---1-------1---1--------1---1-------------|
G|-------0---0-------0---0--------0---0--0---0----0-|
D|-------2---2-------2---2--------2---2----0---0h2--|
A|-0-----------0-----------0------------------------|
E|-------------------------------------3------------|

   F                                   G7
   1 + 2 + 3 + 4 + 5 + 6 + 1 + 2 + 3 + 4 + 5 + 6 +
e|-------------------------------------------------|
B|-----------1-------------------1-----------0-----|
G|-------0h2---------2p0-0---------2p0---0-------0-|
D|-----------------------------------------3---3---|
A|-------------------------------------------------|
E|-1-----------1-----------1-----------3-----------|

   C                        F           G
   1 + 2 + 3 + 4 + 5 + 6  + 1 + 2 + 3 + 4 + 5 + 6 +
e|--------------------------------------------------|
B|-------1---1--------------------1---1-------0---0-|
G|-------0---0---0---0----0-------2---2-------0---0-|
D|-------2---2-----0---0h2--------3---3-------0---0-|
A|-3-----------3------------------------------------|
E|--------------------------1-----------3-----------|

   C                        F           G
   1 + 2 + 3 + 4 + 5 + 6  + 1 + 2 + 3 + 4 + 5 + 6 +
e|--------------------------------------------------|
B|-------1---1--------------------1---1-------0---0-|
G|-------0---0---0---0----0-------2---2-------0---0-|
D|-------2---2-----0---0h2--------3---3-------0---0-|
A|-3-----------3------------------------------------|
E|--------------------------1-----------3-----------|

   Am                      Em            
   1 + 2 + 3 + 4 + 5 + 6 + 1 + 2 + 3 + 4 + 5 + 6 +
e|-------------------------------------------------|
B|-------1---1-------1---1-------0---0-------0---0-|
G|-------0---0-------0---0-------0---0-------0---0-|
D|-------2---2-------2---2-------2---2-------2---2-|
A|-0-----------0-----------------------------------|
E|-------------------------0-----------0-----------|

   F                                   G7sus4            
   1 + 2 + 3 + 4 + 5 + 6 + 1 + 2 + 3 + 4 + 5 + 6 +
e|-------------------------------------------------|
B|-------1---1-------1---1-------1---1-------1---1-|
G|-------2---2-------2---2-------2---2-------0---0-|
D|-------3---3-------3---3-------3---3-------3---3-|
A|-------------------------------------------------|
E|-1-----------1-----------1-----------3-----------|

[Chorus]
   C                       Am7          G
   1 + 2 + 3 + 4 + 5 + 6  + 1 + 2 + 3 + 4 + 5 + 6 +
e|--------------------------------------------------|
B|-------1---1--------------------1---1-------0---0-|
G|-------0---0---0---0----0-------0---0-------0---0-|
D|-------2---2-----0---0h2--------2---2-------0---0-|
A|-3-----------3------------0-----------------------|
E|--------------------------------------3-----------|

   C                       Am7          G
   1 + 2 + 3 + 4 + 5 + 6  + 1 + 2 + 3 + 4 + 5 + 6 +
e|--------------------------------------------------|
B|-------1---1--------------------1---1-------0---0-|
G|-------0---0---0---0----0-------0---0-------0---0-|
D|-------2---2-----0---0h2--------2---2-------0---0-|
A|-3-----------3------------0-----------------------|
E|--------------------------------------3-----------|

   Am                                  C
   1 + 2 + 3 + 4 + 5 + 6 + 1 + 2 + 3 + 4 + 5 + 6  +
e|--------------------------------------------------|
B|-------1---1-------1---1--------1---1-------------|
G|-------0---0-------0---0--------0---0--0---0----0-|
D|-------2---2-------2---2--------2---2----0---0h2--|
A|-0-----------0-----------0------------------------|
E|-------------------------------------3------------|

   F                                   G7
   1 + 2 + 3 + 4 + 5 + 6 + 1 + 2 + 3 + 4 + 5 + 6 +
e|-------------------------------------------------|
B|-----------1-------------------1-----------0-----|
G|-------0h2---------2p0-0---------2p0---0-------0-|
D|-----------------------------------------3---3---|
A|-------------------------------------------------|
E|-1-----------1-----------1-----------3-----------|

[Bridge]
   C                       Am7          G
   1 + 2 + 3 + 4 + 5 + 6  + 1 + 2 + 3 + 4 + 5 + 6 +
e|--------------------------------------------------|
B|-------1---1--------------------1---1-------0---0-|
G|-------0---0---0---0----0-------0---0-------0---0-|
D|-------2---2-----0---0h2--------2---2-------0---0-|
A|-3-----------3------------0-----------------------|
E|--------------------------------------3-----------|

   C                        F           G
   1 + 2 + 3 + 4 + 5 + 6  + 1 + 2 + 3 + 4 + 5 + 6 +
e|--------------------------------------------------|
B|-------1---1--------------------1---1-------0---0-|
G|-------0---0---0---0----0-------2---2-------0---0-|
D|-------2---2-----0---0h2--------3---3-------0---0-|
A|-3-----------3------------------------------------|
E|--------------------------1-----------3-----------|

   Am                      Em            
   1 + 2 + 3 + 4 + 5 + 6 + 1 + 2 + 3 + 4 + 5 + 6 +
e|-------------------------------------------------|
B|-------1---1-------1---1-------0---0-------0---0-|
G|-------0---0-------0---0-------0---0-------0---0-|
D|-------2---2-------2---2-------2---2-------2---2-|
A|-0-----------0-----------------------------------|
E|-------------------------0-----------0-----------|

   F                       G           
   1 + 2 + 3 + 4 + 5 + 6 + 1 + 2 + 3 + 4 + 5 + 6 +
e|-------------------------------------------------|
B|-------1---1-------1---1-------0---0-------0---0-|
G|-------2---2-------2---2-------0---0-------0---0-|
D|-------3---3-------3---3-------0---0-------0---0-|
A|-------------------------------------------------|
E|-1-----------1-----------3-----------3-----------|

   Am                      Em
   1 + 2 + 3 + 4 + 5 + 6 + 1 + 2 + 3 + 4 + 5 + 6 +
e|-------------------------------------------------|
B|-------1---1-------1---1-------0---0-------0---0-|
G|-------0---0-------0---0-------0---0-------0---0-|
D|-------2---2-------2---2-------2---2-------2---2-|
A|-0-----------0-----------------------------------|
E|-------------------------0-----------0-----------|

   F                       G           
   1 + 2 + 3 + 4 + 5 + 6 + 1 + 2 + 3 + 4 + 5 + 6 +
e|-------------------------------------------------|
B|-------1---1-------1---1-------0---0-------0---0-|
G|-------2---2-------2---2-------0---0-------0---0-|
D|-------3---3-------3---3-------0---0-------0---0-|
A|-------------------------------------------------|
E|-1-----------1-----------3-----------3-----------|

Strum: 

|C       |F   G   |C       |F   G   |
|C       |F   G   |C       |F   G   |
|Am      |Em      |F       |G       |

(light strum):

|C       |Em      |Fmaj7#11|C   G   |
|Am      |Am9+5   |C       |G       |
|Am      |Am9+5   |C       |G   Am  |
|Fmaj7#11 (hold for a few bars then fade it out)


         C: x32010
         F: 133211
         G: 320001
        Am: x02210
        Em: 022000
  FMaj7#11: 133200
     Am9+5: x03200 

            
            
Suggest correction
Creating personal tab
Creating personal tab
You can edit any tab online and save it as your Personal.

You can edit, replace or remove any tab part or add personal notes – all changes will be seen only by you.

Personal tabs can be accessed anytime from any device, even offline.
Learn more »
comments
print report bad tab
guest
You may want to rate the tab now too:
select rating
Wanna post a correction for this tab? Suggest correction