Oops, an error
Loading. Please wait.

My Favourite Faded Fantasy tab

version 2
version 2

Whole song

  • More detailed than previous tab, more accurate.
532 views 9 this week
no commentswrite comment
1 2 3 4 5
2 more votes to show rating
add to favorites
×
Save as Personal and add changes to this tab that will be seen only by you. Learn more ›
×
You can save this tab as Personal to edit and correct it or add notes. All changes will be seen only by you. Learn more »
launch autoscroll
font size
0
reset
how to read this tab
guitar tuner
edit
Autoscroll
slow
fast
+/-
esc
set tempo
stop
About this tab version
More detailed than previous tab, more accurate. Was this info helpful? Yes No
Damien Rice - My Favourite Faded Fantasy

Chords by Simon Kelly

This tab is a difficult one, because in a lot of places in the song on the album the guitar is very quiet, 
and there's violins playing over it, and live he uses a lot of fuzz, but I've done my best here. This is based
on both the studio album, and the Live at Carre recording.

Be warned, there's a lot of funny chords in this, and some of them are quiet difficult to get.

CAPO ON 2 - STUDIO VERSION
CAPO ON 3 - LIVE VERSION
All chords in relation to capo

Chords used:
     Am  G#  C/G C/F G   G#m E/G# G#5 A5  D#/G Gmaj  D/F# F   Amadd2 E
e|---0---0---0---0---3---4---4----x---x---x----3-----2----1---0------0---|
B|---1---1---1---1---0---4---5----4---5---4----3-----3----1---0------0---|
G|---2---1---0---0---0---4---4----x---x---x----4-----2----2---2------1---|
D|---2---x---2---3---0---6---6----x---x---x----5-----4----3---2------2---|
A|---0---x---3---x---2---6---7----x---x---x----5-----5----3---3------2---|
E|---x---x---3---x---3---4---4----4---5---3----3-----2----1---0------0---|


[Verse 1]

[00:00-00:13]
    Am                                      G#
e|------------0---------0---------1-------0-----------0---------0---------1-------0----|
B|------1---1-----1---1-----1---1-----1---------1---1-----1---1-----1---1-----1--------|
G|--0h2---2-----2---2-----2---2-----2---2---0h1---1-----1---1-----1---1-----1---1------|
D|-------------------------------------------------------------------------------------|
A|-------------------------------------------------------------------------------------|
E|-------------------------------------------------------------------------------------|

[00:13-00:22]
    C/G                                     C/F
e|--------0-0-----0-------0-5-------0---------0---------0---------0--------------------|
B|----1---------1-----1---------1-------1---1-----1---1-----1---1-----1---1------------|
G|--0---0-----0-----0---0-----0---0----------------------------------------------------|
D|------------------------------------3---3-----3---3-----3---3-----3---3--------------|
A|-------------------------------------------------------------------------------------|
E|-------------------------------------------------------------------------------------|

[00:22-00:33]
    Am                                      G#
e|------------0---------0---------0---------0---------0---------0---------0---------0--|
B|------1---1-----1---1-----1---1-----1---1-----1---1-----1---1-----1---1-----1---1----|
G|--0h2---2-----2---2-----2---2-----2---2-----1---1-----1---1-----1---1-----1---1------|
D|-------------------------------------------------------------------------------------|
A|-------------------------------------------------------------------------------------|
E|-------------------------------------------------------------------------------------|

[00:33-00:43]
    C/G                                     C/F
e|----------0---------0---------0---------0---------0---------0---------0---------0----|
B|----1---1-----1---1-----1---1-----1---1-----1---1-----1---1-----1---1-----1---1------|
G|--0---0-----0---0-----0---0-----0---0------------------------------------------------|
D|------------------------------------------3---3-----3---3-----3---3-----3---3--------|
A|-------------------------------------------------------------------------------------|
E|-------------------------------------------------------------------------------------|

[00:43-00:53]
    Am                                      G#
e|----------0---------0---------0---------0---------0---------0---------0---------0----|
B|----1---1-----1---1-----1---1-----1---1-----1---1-----1---1-----1---1-----1---1------|
G|--2---2-----2---2-----2---2-----2---2-----1---1-----1---1-----1---1-----1---1--------|
D|-------------------------------------------------------------------------------------|
A|-------------------------------------------------------------------------------------|
E|-------------------------------------------------------------------------------------|

[00:53-1:02]
    C/G                                     C/F
e|----------0---------0---------0---------0---------0---------0---------0---------0----|
B|----1---1-----1---1-----1---1-----1---1-----1---1-----1---1-----1---1-----1---1------|
G|--0---0-----0---0-----0---0-----0---0------------------------------------------------|
D|------------------------------------------3---3-----3---3-----3---3-----3---3--------|
A|-------------------------------------------------------------------------------------|
E|-------------------------------------------------------------------------------------|


[Chorus 1]
[1:02-1:12]
    C/F                                     C/G
e|----------0---------0---------0---------0---------0---------0---------0---------0----|
B|----1---1-----1---1-----1---1-----1---1-----1---1-----1---1-----1---1-----1---1------|
G|-------------------------------------------------------------------------------------|
D|--3---3-----3---3-----3---3-----3---3-----2---2-----2---2-----2---2-----2---2--------|
A|-------------------------------------------------------------------------------------|
E|-------------------------------------------------------------------------------------|

[1:12-1:22]
    C/F                                       Am
e|----------0---------0---------0--------------------------------------0---------------|
B|----1---1-----1---1-----1---1-----1---1---1----1-1--1---1---1---1-1----1-------------|
G|-------------------------------------------------------------------------2-2---------|
D|--3---3-----3---3-----3---3-----3---3---3--------------------------------------------|
A|--------------------------------------------0--0-0---0-0--0---0----------------------|
E|-------------------------------------------------------------------------------------|


[Verse 2]
[1:22-1:32]
    Am                                      G#
e|------------0---------0---------0---------0---------0---------0---------0---------0--|
B|------1---1-----1---1-----1---1-----1---1-----1---1-----1---1-----1---1-----1---1----|
G|--0h2---2-----2---2-----2---2-----2---2-----1---1-----1---1-----1---1-----1---1------|
D|-------------------------------------------------------------------------------------|
A|-------------------------------------------------------------------------------------|
E|-------------------------------------------------------------------------------------|

[1:32-1:42]
    C/G                                     C/F
e|----------0---------0---------0---------0---------0---------0-----------------0------|
B|----1---1-----1---1-----1---1-----1---1-----1---1-----1---1-----1---1-1---1-----1----|
G|--0---0-----0---0-----0---0-----0---0------------------------------------------------|
D|------------------------------------------3---3-----3---3-----3---3-----3---3--------|
A|-------------------------------------------------------------------------------------|
E|-------------------------------------------------------------------------------------|

[1:42-1:51]
    Am                                      G#
e|------------0---------0---------0---------0---------0---------0---------0---------0--|
B|------1---1-----1---1-----1---1-----1---1-----1---1-----1---1-----1---1-----1---1----|
G|--0h2---2-----2---2-----2---2-----2---2-----1---1-----1---1-----1---1-----1---1------|
D|-------------------------------------------------------------------------------------|
A|-------------------------------------------------------------------------------------|
E|-------------------------------------------------------------------------------------|

[1:51-2:01]
    C/G                                     C/F
e|----------0---------0---------0---------0---------0-------------------0---------0----|
B|----1---1-----1---1-----1---1-----1---1-----1---1-----1---1-1---1---1-----1---1------|
G|--0---0-----0---0-----0---0-----0---0------------------------------------------------|
D|------------------------------------------3---3-----3---3-----3---3-----3---3--------|
A|-------------------------------------------------------------------------------------|
E|-------------------------------------------------------------------------------------|


[Chorus 2]
[2:01-2:11]
    C/F                                     C/G
e|----------0---------0---------0---------0---------0---------0---------0---------0----|
B|----1---1-----1---1-----1---1-----1---1-----1---1-----1---1-----1---1-----1---1------|
G|-------------------------------------------------------------------------------------|
D|--3---3-----3---3-----3---3-----3---3-----2---2-----2---2-----2---2-----2---2--------|
A|-------------------------------------------------------------------------------------|
E|-------------------------------------------------------------------------------------|

[2:11-2:21]
    C/F                                     C/G
e|----------0---------0---------0---------0---------0---------0---------0---------0----|
B|----1---1-----1---1-----1---1-----1---1-----1---1-----1---1-----1---1-----1---1------|
G|-------------------------------------------------------------------------------------|
D|--3---3-----3---3-----3---3-----3---3------------------------------------------------|
A|------------------------------------------3---3-----3---3-----3---3-----3---3--------|
E|-------------------------------------------------------------------------------------|

[2:21-2:32]
    C/F                                     C/G
e|----------0---------0---------0---------0---------0---------0---------0---------0----|
B|----1---1-----1---1-----1---1-----1---1-----1---1-----1---1-----1---1-----1---1------|
G|-------------------------------------------------------------------------------------|
D|--3---3-----3---3-----3---3-----3---3-----2---2-----2---2-----2---2-----2---2--------|
A|-------------------------------------------------------------------------------------|
E|-------------------------------------------------------------------------------------|

[2:32-2:36]
    C/F                                     
e|----------0---------0---------0------------------------------------------------------|
B|----1---1-----1---1-----1---1-----1---1----------------------------------------------|
G|-------------------------------------------------------------------------------------|
D|--3---3-----3---3-----3---3-----3---3------------------------------------------------|
A|-------------------------------------------------------------------------------------|
E|-------------------------------------------------------------------------------------|


[Bridge]
[2:36-2:46]
    Am                  G                   G#        G#m       Am        G
e|-------------------------------------------------------------------------------------|
B|----1---1-1---1---1-0---0------0---------0-------------------------------------------|
G|----------------------------0-----0---0-----5---0-5---4---0-4---5---0-5---4---0-4----|
D|-------------------------------------------------------------------------------------|
A|--0---0-----0---0--------------------------------------------------------------------|
E|----------------------3---3-----3---3-----4---4-----4---4-----5---5-----3---3--------|

[2:46-2:56]
    F                   B/F#                G                   Am        G         F
e|-------------------------------------------------------------------------------------|
B|-------------------------------------------------------------------------------------|
G|----2---0-2---2---0-2---4---0-4---4---2/4---4---0-4---4---0-4---5---0-5---4---0-4\2--|
D|-------------------------------------------------------------------------------------|
A|-------------------------------------------------------------------------------------|
E|--1---1-----1---1-----2---2-----2---2-----3---3-----3---3-----5---5-----3---3--------|

[2:56-3:05]
    F                           E           Am    
e|-------------------------------------------------------------------------------------|
B|-------------------------------------------------------------------------------------|
G|----2---0-2---2---0-2---2---0-1---1---1-1/--5---5-5---5---5-5---5---5----------------|
D|-------------------------------------------------------------------------------------|
A|-------------------------------------------------------------------------------------|
E|--1---1-----1---1-----1---1-----0---0-----5---5-----5---5-----5---5------------------|

[3:05-3:12]

e|-------------------------------------------------------------------------------------|
B|-------------------------------------------------------------------------------------|
G|-------------------------------------------------------------------------------------|
D|--------------2--------2--------2--------2-------------------------------------------|
A|----------3-2------3-2-----3-2-------3-2---------------------------------------------|
E|--2-3-4-5--------5--------5-------5--------------------------------------------------|


[Verse 3]
[3:12-3:22]

e|-------------------------------------------------------------------------------------|
B|-------------------------------------------------------------------------------------|
G|-------------------------------------------------------------------------------------|
D|--------2--------2--------2--------2--------2--------2--------2--------2-------------|
A|----3-2------3-2------3-2------3-2------3-2------3-2------3-2------3-2---------------|
E|--5--------5--------5--------5--------4--------4--------4--------4-------------------|

[3:22-3:31]

e|-------------------------------------------------------------------------------------|
B|-------------------------------------------------------------------------------------|
G|-------------------------------------------------------------------------------------|
D|----0---2---0---2---0---2---0---2---0---2---0---2---0---2---0---2--------------------|
A|------3-------3-------3-------3-------3-------3-------3-------3----------------------|
E|--3-------3-------3-------3-------1-------1-------1-------1--------------------------|

[3:31-3:41]

e|-------------------------------------------------------------------------------------|
B|-------------------------------------------------------------------------------------|
G|-------------------------------------------------------------------------------------|
D|--------2--------2--------2--------2--------2--------2--------2--------2-------------|
A|----3-2------3-2------3-2------3-2------3-2------3-2------3-2------3-2---------------|
E|--5--------5--------5--------5--------4--------4--------4--------4-------------------|


[3:41-3:51]

e|-------------------------------------------------------------------------------------|
B|-------------------------------------------------------------------------------------|
G|-------------------------------------------------------------------------------------|
D|--------2--------2--------2--------2--------2--------2--------2--------2-------------|
A|----3-2------3-2------3-2------3-2------3-2------3-2------3-2------3-2---------------|
E|--3--------3--------3--------3--------1--------1--------1--------1-------------------|

[3:51-4:00]

    F                                       C/G
e|-------------------------------------------------------------------------------------|
B|----------1---------1---------1---------1---------1---------1---------1---------1----|
G|----------2---------2---------2---------2---------0---------0---------0---------0----|
D|----3---3-----3---3-----3---3-----3---3-----2---2-----2---2-----2---2-----2---2------|
A|------3---------3---------3---------3---------3---------3---------3---------3--------|
E|--1---------1---------1---------1---------3---------3---------3---------3------------|


[Chorus 3]
[4:00-4:10]
   
    F                                       C/G
e|-------------------------------------------------------------------------------------|
B|----------1---------1---------1---------1---------1---------1---------1---------1----|
G|----------2---------2---------2---------2---------0---------0---------0---------0----|
D|----3---3-----3---3-----3---3-----3---3-----2---2-----2---2-----2---2-----2---2------|
A|------3---------3---------3---------3--------3---------3---------3---------3--------|
E|--1---------1---------1---------1---------3---------3---------3---------3------------|

[4:10-4:20]

    F                                       C/G
e|-------------------------------------------------------------------------------------|
B|----------1---------1---------1---------1---------1---------1---------1---------1----|
G|----------2---------2---------2---------2---------0---------0---------0---------0----|
D|----3---3-----3---3-----3---3-----3---3-----2---2-----2---2-----2---2-----2---2------|
A|------3---------3---------3---------3---------3---------3---------3---------3--------|
E|--1---------1---------1---------1---------3---------3---------3---------3------------|

[4:20-4:26]
   F

e|-------------------------------------------------------------------------------------|
B|----------1---------1-------1-------1------------------------------------------------|
G|----------2---------2-------2-------2------------------------------------------------|
D|----3---3-----3---3-----3-------3----------------------------------------------------|
A|------3---------3---------3-------3--------------------------------------------------|
E|--3---------3---------3-------3------------------------------------------------------|


[Bridge]
[4:26-4:36]
    Am                  G                   G#        G#m       Am        G
e|-------------------------------------------------------------------------------------|
B|----1---1-1---1---1-0---0------0---------0-------------------------------------------|
G|----------------------------0-----0---0-----5---0-5---4---0-4---5---0-5---4---0-4----|
D|-------------------------------------------------------------------------------------|
A|--0---0-----0---0--------------------------------------------------------------------|
E|----------------------3---3-----3---3-----4---4-----4---4-----5---5-----3---3--------|

[4:36-4:45]
    F                   B/F#                G                   Am        G         F
e|-------------------------------------------------------------------------------------|
B|-------------------------------------------------------------------------------------|
G|----2---0-2---2---0-2---4---0-4---4---2/4---4---0-4---4---0-4---5---0-5---4---0-4\2--|
D|-------------------------------------------------------------------------------------|
A|-------------------------------------------------------------------------------------|
E|--1---1-----1---1-----2---2-----2---2-----3---3-----3---3-----5---5-----3---3--------|

[4:45-4:52]
    F                           E           Am    
e|-------------------------------------------------------------------------------------|
B|-------------------------------------------------------------------------------------|
G|----2---0-2---2---0-2---2---0-1---1---1-1/--5---5-5---5---5-5------------------------|
D|-------------------------------------------------------------------------------------|
A|-------------------------------------------------------------------------------------|
E|--1---1-----1---1-----1---1-----0---0-----5---5-----5---5----------------------------|

[4:52-4:55]
e|--x-x-x-x-x-x-x-x-x-x-x-x-x--|
B|--x-x-x-x-x-x-x-x-x-x-x-x-x--|
G|--x-x-x-x-x-x-x-x-x-x-x-x-x--|
D|--x-x-x-x-x-x-x-x-x-x-x-x-x--|
A|--8-8-7-7-5-5-3-3-2-2-x-x-x--|
E|--x-x-x-x-x-x-x-x-x-x-5-4-5--|


[Verse 4]

Am               E/G#
Love is all that bloomed
G               D/F#
Always what you do
F            Amadd2
Never let someone go or they...
E                        Am
I ain't never loved like you
     E/G#
I’ve never loved 
     G
I've never loved
     D/F#                         F
I’ve never loved another like you
     Amadd2
I’ve never loved
     E
I’ve never loved
     Am  E/G# G D/F# 
I’ve never loved
F      
Never loved
Amadd1
I've never loved
E
I've never loved


e|--x-x-x-x-x-x-x-x-x-x-x-x-x--|
B|--x-x-x-x-x-x-x-x-x-x-x-x-x--|
G|--x-x-x-x-x-x-x-x-x-x-x-x-x--|
D|--x-x-x-x-x-x-x-x-x-x-x-x-x--|
A|--8-8-7-7-5-5-3-3-2-2-x-x-x--|
E|--x-x-x-x-x-x-x-x-x-x-5-4-5--|


************************************

| x  Dead note
| h  Hammer-on
| p  Pull-off
| r  Release
| /  Slide up
| \  Slide down

************************************
Suggest correction
Creating personal tab
Creating personal tab
You can edit any tab online and save it as your Personal.

You can edit, replace or remove any tab part or add personal notes – all changes will be seen only by you.

Personal tabs can be accessed anytime from any device, even offline.
Learn more »
Give kudos to tab author, rate the tab!
1 2 3 4 5
comments
print report bad tab
guest
You may want to rate the tab now too:
select rating
Wanna post a correction for this tab? Suggest correction